Song name
# A B C D E F G H I J K L M N O P Q R S T U V W X Y Z

Tool - Eon Blue Apocalypse tab

I've seen this song live, and this is also what I hear on the album, so trust me when I 
this will be the most accurate tab on here.
________

Band: TOOL
Album: Lateralus
Song: Eon Blue Apocalypse
Tabbed by: Andrew C.
Date tabbed: 12/01/07

Tuning: D,A,D,G,B,E
_______
LEGEND:

h = Hammer-On
P = Pull-Off
\ = Slide Up
/ = Slide Down
tr. = Tremolo Picking
_______

+ Guitar Volume Low (Clean)

+ DELAY On Throughout Song = 500ms

In the album, the song fades in, but you don't have to go out of your way with a volume 
or straining your arm to swell your volume in on your guitar. Adam doesn't really fade 
live, all he does in lightly tremolo pick
to give it that effect.
_______

E-------|
B-------|
G-------|
D-0tr.--|
A-------|
D-------|

E--------------------------------------|
B--------------------------------------|
G--------------------------------------|
D-*Slow Down Tremelo Picking at 0:33*--|
A--------------------------------------|
D--------------------------------------|

End Tremelo:
0:36
E-------|
B-------|
G-------|
D-0--0--|
A-------|
D-------|

0:40
E----------------------------------------------|
B----------------------------------------------|
G----------------------------------------------|
D-8p7-7---3/5-5/7--3-------8p7-7---3/5-5/7--5--|
A----------------------------------------------|
D-----------------------0----------------------|

E-------------------------------|
B----------------------------3--|
G----------------------------2--|
D---5-------5-----------0----0--|
A-6---6-5-6---6-5-6----------0--|
D-------------------8-7------0--|
                          *Strum*

Hope you enjoyed it.
Tap to rate this tab
 
# A B C D E F G H I J K L M N O P Q R S T U V W X Y Z