Song name
# A B C D E F G H I J K L M N O P Q R S T U V W X Y Z

Tool - Intension tab

-------------------------------------------------------------------------------
			     Intension - Tool
-------------------------------------------------------------------------------
Intro only.
Tabbed based on listening/watching to live recordings from 2006 and 2007. Adam might do 
something a little different in the recent recordings of Intension from 2010/2011.
h = Hammer-on

Tuning:DADGBe


e|---------------------------------------------------------------------|
B|---------------------------------------------------------------------|
G|---12---11--------7h9---11------9------------------------------------| (2x)
D|---9----9---------7-----9-------9------------------------------------|
A|---------------------------------------------------------------------|
D|---------------------------------------------------------------------|


e|---------------------------------------------------------------------|
B|---------------------------------------------------------------------|
G|-10-----9------------5---7------9----------7-------------------------|
D|-12-----10-------7---5---7------7----------7-------------------------| (2x)
A|---------------------------------------------------------------------|
D|---------------------------------------------------------------------|
Tap to rate this tab
 
# A B C D E F G H I J K L M N O P Q R S T U V W X Y Z