Song name
# A B C D E F G H I J K L M N O P Q R S T U V W X Y Z

Tool - Wings For Marie tab

-------------------------------------------------------------------------------
			     Wings for Marie- Tool
-------------------------------------------------------------------------------
2002 version
Videos confirm that it is played on these frets (instead of other tabs ive seen)
The only frets I am unsure about are in Part 3 and the Outro, whether Adam plays the
note G by playing 17 on the D string, or by playing 12 on the G; I simply don't have video
proof for it

The song order is pretty loose because this was just a jam with Maynard's positive
speech before Lateralus and had no perfect/set-in-stone structure with lengths of parts. Each
part that is written out (except for part 3) is the minimum that should be played, for 
it can be played longer than what is written here.
Listen to Tool live OKC 2002 for a reference point (youtube)

But the order that is most consistent in the videos is
Part 1,
Part 2,
Part 3,
Part 1,
Part 2,
Part 3,
Part 1,
Part 2,
Part 3,
Part 4,
Part 2,
Part 3,
Part 1,
Part 2,Slow down to about quarter note= 80 or 75 BPM gradually/smoothly
Outro

4/4 time; Part 1 and 2 are 2 bars;eighth-note triplet subdivision for most of it

 h=   hammer-on

Tuning:DADGBE



Part 1- play it 1 time at a minimum and then go to part 2
e|---------------------------------------------------------------------------|
B|---------------------------------------------------------------------------|
G|---------------------------------------------------------------------------|
D|--14--14--14--14--14--14--14--14-------------------------------------------|
A|----00--00--00--00--00--00--00--00-----------------------------------------|
D|---------------------------------------------------------------------------|



Part 2- play one time at minimum after part 1 and then go to part 3
e|---------------------------------------------------------------------------|
B|---------------------------------------------------------------------------|
G|---------------------------------------------------------------------------|
D|--14----14----14----14----14----14----14----14-----------------------------|
A|----15-0--15-0--15-0--15-0--15-0--15-0--15-0--15-0-------------------------|
D|---------------------------------------------------------------------------|


Part 3
e|---------------------------------------------------------------------------|
B|---------------------------------------------------------------------------|
G|----------------------------------12---------------------------------------|
D|--15h14-17--15h14-15--14--12--14------14--14--14--14--14--14--14--14-------|
A|-------0--00-----0--00--00--00--00--00--00--00--00--00--00--00--00--00-----|
D|---------------------------------------------------------------------------|

e|---------------------------------------------------------------------------|
B|---------------------------------------------------------------------------|
G|-12------------------------------------------------------------------------|
D|-----14--14--14--14--14--14--14--------------------------------------------|
A|---00--00--00--00--00--00--00--00------------------------------------------|
D|---------------------------------------------------------------------------| Now go
back to playing part 1 and then to part 2


Part 4- Played after part 3
e|---------------------------------------------------------------------------|
B|---------------------------------------------------------------------------|
G|---------------------------------------------------------------------------|
D|-14--14--14--12--11--11--11--11--11--11--11--11----------------------------|
A|---00--00--00--00--00--00--00--00--00--00--00--00--------------------------|
D|---------------------------------------------------------------------------| Now play
Part 2, and then into 3

Outro
Once part 2 is slowed down to about quarter note= 80 or 75 BPMs;NOTE- the rhythms are
now eighth notes for beats (1 and 2 and..) instead of triplets.

e|---------------------------------------------------------------------------|
B|---------------------------------------------------------------------------|
G|---------------------------------------------------------------------------|
D|------------14--------14-------14---2--------------------------------------|
A|---------0-15--15-0-15--15-0-15--15---3--0---------------------------------|
D|---------------------------------------------------------------------------|
Tap to rate this tab
 
# A B C D E F G H I J K L M N O P Q R S T U V W X Y Z