Song name
# A B C D E F G H I J K L M N O P Q R S T U V W X Y Z

Tool - Sober Acoustic tab

This version also has lyrics for those of you using the ipad program.

Intro
|--------------------------------------------------|
|--------------------------------------------------|
|-14-14-14-1414-12-1212-12/(15)-15-1515-15-12-1212-|
|--------------------------------------------------|
|-12-12-12-1212-10-1010-10/(13)-13-1313-13-10-1010-|
|--------------------------------------------------|

|---------------------------------------------------------|
|---------------------------------------------------------|
|-14-14-14-1414-12-1212-12/(15)-15-1515-17-17-17-17171717-|
|---------------------------------------------------------|
|-12-12-12-1212-10-1010-10/(13)-13-1313-15-15-15-15151515-|
|---------------------------------------------------------|

Verse
|----------------------------|
|----------------------------|
|-14------15------14------15-|
|-12------12------12------12-|
|-12------13------12------13-|
|----------------------------|

Pre-Chorus
|-----------------------------------|
|-15----------1515----------1515----|
|-14----------1414----------1414----|
|-12-12121212-1212-12121212-1212-xx-|
|-12-12121212-1212-12121212-1212-xx-|
|-12-12121212-1212-12121212-1212-xx-|

|-----------------------------------|
|-16----------1616----------1616----|
|-15----------1515----------1515----|
|-13-13131313-1313-13131313-1313-xx-|
|-13-13131313-1313-13131313-1313-xx-|
|-13-13131313-1313-13131313-1313-xx-|

Chorus 
|-------------------------------------|
|--------4-4-444444--------4-4-444444-|
|--------3-3-333333--------3-3-333333-|
|-0~--1~------------0~--1~------------|
|-0~--1~------------0~--1~------------|
|-0~--1~------------0~--1~------------|

Interlude
|------------------------------|
|---------------15-------------|
|------15~b-----14--15-15-1515-|
|------------------------------|
|-12~--13~b--12-----13-13-1313-|
|------------------------------|

There's a shadow just behind me,
shrouding every step I take, 
making every promise empty, 
pointing every finger at me. 
Waiting like a stalking butler 
who upon the finger rests. 
Murder now the path is must we 
just because the son has come. 

Jesus, won't you fucking whistle 
something but the past and done? (x2)

Why can't we not be sober? 
I just want to start this over. 
Why can't we drink forever? 
I just want to start things over. 

I am just a worthless liar. 
I am just an imbecile. 
I will only complicate you. 
Trust in me and fall as well. 
I will find a center in you. 
I will chew it up and leave, 
I will work to elevate you 
just enough to bring you down. 

Mother Mary won't you whisper 
something but the past and done. (x2)

Why can't we not be sober? 
I Just want to start this over. 
Why can't we sleep forever? 
I Just want to start things over. 

I am just a worthless liar. 
I am just an imbecile. 
I will only complicate you. 
Trust in me and fall as well. 
I will find a center in you. 
I will chew it up and leave. 

Trust me. Trust me. Trust me. Trust me. Trust Me. 

Why can't we not be sober? 
I Just want to start things over.
Why can't we sleep forever? 
I Just want to start this over. 

I want what I want. 
I want what I want. 
I want what I want. 
I want what I want.
Tap to rate this tab
 
# A B C D E F G H I J K L M N O P Q R S T U V W X Y Z