Song name
# A B C D E F G H I J K L M N O P Q R S T U V W X Y Z

Tool - Right In Two tab

-------------------------------------------------------------------------------
                             Right in Two - Tool
-------------------------------------------------------------------------------
Tabbed by: Clint W

Tuning:Drop D

e|-----------|------------|-----------|----------|
B|-----------|------------|-----------|----------|
G|-----------|------------|-----------|----------|
D|--------7--|--------10--|--------7--|------12--|
A|-----5---5-|-----8----8-|-----5---5-|----------|
D|-0---------|-8----------|-5---------|-10-------|


e|-----------|------------|-----------|----------|
B|-----------|------------|-----------|----------|
G|-----------|------------|-----------|----------|
D|-12~----7--|--------10--|--------7--|-----12-13|
A|-----5---5-|-----8----8-|-----5---5-|----------|
D|-0---------|-8----------|-5---------|-10-------|


e|-----------|------------|-----------|----------|
B|-----------|------------|-----------|----------|
G|-----------|------------|-----------|----------|
D|-12~----7--|--------10--|--------7--|------12--|
A|-----5---5-|-----8----8-|-----5---5-|----------|
D|-0---------|-8----------|-5---------|-10-------|


e|-----------|------------|-----------|----------|
B|-----------|------------|-----------|----------|
G|-----------|------------|-----------|----------|
D|-12~----7--|--------10--|--------7--|-----12-13|
A|-----5---5-|-----8----8-|-----5---5-|----------|
D|-0---------|-8----------|-5---------|-10-------|
repeat a couple times

then at about 1:22
(palm muted) hit the first '8' of each bar very softly
e|-----------|------------|-----------|---------|
B|-----------|------------|-----------|---------|
G|--------10-|---------10-|--------10-|---------|. repeat this
D|-----------|------------|-----------|-10------|.
A|-----8-8--8|------8-8--8|-----8-8--8|-----10--|
D|-0---------|-0----------|-0---------|---------|



thats all i got, hope it helps :)
Tap to rate this tab
# A B C D E F G H I J K L M N O P Q R S T U V W X Y Z