Song name
# A B C D E F G H I J K L M N O P Q R S T U V W X Y Z

Tool - Opiate tab

Tabbed by: unknown1321
E-mail: unknown1321@gmail.com

Tuning: Standard

    'Choices always were a problem...'
   + +
e|-5---------------------------|
B|---5-------------------------|
G|-----------------------------|
D|-----------------------------|
A|-----------------------------|
E|----5-7~~----5-7~~----5-7~~--|

   'Deaf and blinded, dumb and born to follow...'
e|--------------------------|
B|--------------------------|
G|-4-4-4-4---4-2---2-2------|  x8
D|-4-4-4-4---4-2---2-2-3-3--|
A|-2-2-2-2---2-0---0-0-3-3--|
E|---------------------1-1--|

   'If you want to get...'
e|------------------------------------|        | *NOTE* There is a bit of a pause
B|------------------------------------|        | between the slides. If you listen to
G|------------------------------------|  x8    | the song you can tell and just time it
D|-4-4-4-4/--9-9-9/--10-10------------|        | up with that.
A|-4-4-4-4/--9-9-9/--10-10------------|
E|------------------------------------|


   'Deaf and blinded, dumb and born to follow...'
e|--------------------------|
B|--------------------------|
G|-4-4-4-4---4-2---2-2------|  x8
D|-4-4-4-4---4-2---2-2-3-3--|
A|-2-2-2-2---2-0---0-0-3-3--|
E|---------------------1-1--|

   'My gods will...'     +
e|-----------------------5-------------------------|
B|-3-3--3-3----3-3--3-3----3-3--3-3----3-3--3-3br--|
G|-2-2--2-2----2-2--2-2----2-2--2-2----2-2--2-2br--|
D|-0-0--0-0----0-0--0-0----0-0--0-0----0-0--0-0----|
A|-0-0--0-0----0-0--0-0----0-0--0-0----0-0--0-0----|
E|-------------------------------------------------|

   *same thing but let the last one ring*
e|-------------------------------------------------|
B|-3-3--3-3----3-3--3-3----3-3--3-3----3-3--3-3----|
G|-2-2--2-2----2-2--2-2----2-2--2-2----2-2--2-2----|
D|-0-0--0-0----0-0--0-0----0-0--0-0----0-0--0-0----|
A|-0-0--0-0----0-0--0-0----0-0--0-0----0-0--0-0----|
E|-------------------------------------------------|

  *do a bit of improve here if you'd like*
e|-------------------------------------------------|
B|-3-3--3-3----3-3--3-3----3-3--3-3----3-3--3-3----|
G|-2-2--2-2----2-2--2-2----2-2--2-2----2-2--2-2----|
D|-0-0--0-0----0-0--0-0----0-0--0-0----0-0--0-0----|
A|-0-0--0-0----0-0--0-0----0-0--0-0----0-0--0-0----|
E|-------------------------------------------------|

  'Jesus Christ, why don't you come save my life...'
e|--------------------------|       -----|
B|--------------------------|       -----|
G|-4-4-4-4---4-2---2-2------|  x8   --4--|
D|-4-4-4-4---4-2---2-2-3-3--|       --4--|
A|-2-2-2-2---2-0---0-0-3-3--|       --2--|
E|---------------------1-1--|       -----|

   + +         + +            + +
e|-5------------5-------------5------------5----------|
B|---5------------5-------------5------------5--------| *go to bottom for
G|----------------------------------------------------|  for info*
D|----------------------------------------------------|
A|----------------------------------------------------|
E|-----7br-5---------7br-5--------7br-5--------7br-5--|

  'If you want to get...'
  Pm........
e|----------|    ----------|
B|----------|    ----------|
G|-4-4-4-4--| x7 -4-4-4-4--|
D|-4-4-4-4--|    -4-4-4-4--|
A|-2-2-2-2--|    -2-2-2-2--|
E|----------|    ----------|
                                 'hand up- hand up...'
e|--------------------------|       ------------|
B|--------------------------|       ------------|
G|-4-4-4-4---4-2---2-2------|  x11  -4-4--4-4---|
D|-4-4-4-4---4-2---2-2-3-3--|       -4-4--4-4---|
A|-2-2-2-2---2-0---0-0-3-3--|       -2-2--2-2---|
E|---------------------1-1--|       ------------|

  'My gods will...'      +
e|-----------------------5-------------------------|
B|-3-3--3-3----3-3--3-3----3-3--3-3----3-3--3-3br--|
G|-2-2--2-2----2-2--2-2----2-2--2-2----2-2--2-2br--|
D|-0-0--0-0----0-0--0-0----0-0--0-0----0-0--0-0----|
A|-0-0--0-0----0-0--0-0----0-0--0-0----0-0--0-0----|
E|-------------------------------------------------|

e|-------------------------------------------------|
B|-3-3--3-3----3-3--3-3----3-3--3-3----3-3--3-3br--|
G|-2-2--2-2----2-2--2-2----2-2--2-2----2-2--2-2br--|
D|-0-0--0-0----0-0--0-0----0-0--0-0----0-0--0-0----|
A|-0-0--0-0----0-0--0-0----0-0--0-0----0-0--0-0----|
E|-------------------------------------------------|
  *Again, improve if you want*
e|-------------------------------------------------|
B|-3-3--3-3----3-3--3-3----3-3--3-3----3-3--3-3----|
G|-2-2--2-2----2-2--2-2----2-2--2-2----2-2--2-2----|
D|-0-0--0-0----0-0--0-0----0-0--0-0----0-0--0-0----|
A|-0-0--0-0----0-0--0-0----0-0--0-0----0-0--0-0----|
E|-------------------------------------------------|

The outro is basically a bunch of simple improve.

NOTE: the part gets a bit confusing, but there really is two guitar parts there. You can 
continue the harmonic section or after the fifth time you play the harmonics you can go 
to the palm muted power chords. I personally like the power chords better.

Thatís really it. I hope you like this tab. Rock on.

************************************

| /   slide up
| \   slide down
| h   hammer-on
| p   pull-off
| ~   vibrato
| +   harmonic
| pm  Mute note
| b   Bend
| pb  Pre-bend
| br  Bend release
| pbr Pre-bend release
| brb Bend release bend

************************************
Tap to rate this tab
 
# A B C D E F G H I J K L M N O P Q R S T U V W X Y Z