Song name
# A B C D E F G H I J K L M N O P Q R S T U V W X Y Z

Tool - Bottom tab

Bottom by Tool

Tabbed by: Radiohead293
Tuning: Drop D 

0:01
e|--------------------------------------|
B|--------------------------------------|
G|--------------------------------------|
D|----5----0---2-3-0-3p2-0-2-3-0-3p2-0--| x3
A|----5----0---2-3-0-3p2-0-2-3-0-3p2-0--|
D|----5----0---2-3-0-3p2-0-2-3-0-3p2-0--|

e|--------------------------------------|
B|--------------------------------------|
G|--------------------------------------|
D|----5----0---2-3-0-3p2-0-2-3----------|
A|----5----0---2-3-0-3p2-0-2-3----------|
D|----5----0---2-3-0-3p2-0-2-3----------|

e|--------------------------------------|
B|--------------------------------------|
G|--------------------------------------|
D|----3----0----------------------------|
A|----3----0----------------------------|
D|----3----0----------------------------|

0:28
e|--------------------------------------|
B|--------------------------------------|
G|--------------------------------------|
D|--------------------------------------| x4
A|-----------------------------3--------|
D|-0---2-3-xxxxxxxx-0---2-3-xx---3------|
  
e|--------------------------------------|
B|--------------------------------------|
G|--------------------------------------|
D|--------------------------------------| x3
A|-----------------------------3--------|
D|-0---2-3-xxxxxxxx-0---2-3-xx---3------|
   m   m m          m   m m    m m

e|--------------------------------------|
B|--------------------------------------|
G|--------------------------------------|
D|--------------------------------------| 
A|-----------------------------3b-------|
D|-0---2-3-xxxxxxxx-0---2-3-xx----------|
   m   m m          m   m m    

0:55
e|-----------------------------------|
B|-----------------------------------|
G|-----------------------------------|
D|-0---2-3-0-3p2-0-2-3-0-3p2-0-5-----| x3
A|-0---2-3-0-3p2-0-2-3-0-3p2-0-5-----|
D|-0---2-3-0-3p2-0-2-3-0-3p2-0-5-----|

e|-----------------------------------|
B|-----------------------------------|
G|-----------------------------------|
D|-0---2-3-0-3p2-0-2-3b--------------| 
A|-0---2-3-0-3p2-0-2-3b--------------|
D|-0---2-3-0-3p2-0-2-3b--------------|

1:08
e|--------------------------------------|
B|--------------------------------------|
G|--------------------------------------|
D|--------------------------------------| x4
A|-----------------------------3--------|
D|-0---2-3-xxxxxxxx-0---2-3-xx---3------|
   m   m m          m   m m    m m

e|--------------------------------------|
B|--------------------------------------|
G|--------------------------------------|
D|--------------------------------------| x3
A|-------------------------------15-----|
D|-0---2-3-xxxxxxxx-0---14-15-xx----15~-|
   m   m m          m   

e|--------------------------------------|
B|--------------------------------------|
G|--------------------------------------|
D|--------------------------------------| 
A|-------------------------------15b----|
D|-0---2-3-xxxxxxxx-0---14-15-xx--------|
   m   m m          m   

1:35
e|-----------------------------------|
B|-----------------------------------|
G|-----------------------------------|
D|-0---2-3-0-3p2-0-2-3-0-3p2-0-5-----| x3
A|-0---2-3-0-3p2-0-2-3-0-3p2-0-5-----|
D|-0---2-3-0-3p2-0-2-3-0-3p2-0-5-----|

e|-----------------------------------|
B|-----------------------------------|
G|-----------------------------------|
D|-0---2-3-0-3p2-0-2-3---------------| 
A|-0---2-3-0-3p2-0-2-3---------------|
D|-0---2-3-0-3p2-0-2-3---------------|

1:50
e|----------------------------|
B|----------------------------|
G|----------------------------|
D|-3----/10--0--5p6-5----0----| x8
A|-3----/10--0--5p6-5----0----|
D|-3----/10--0--5p6-5----0----|

e|---------------------------------------------------------------|
B|---------------------------------------------------------------|
G|---------------------------------------------------------------|
D|-3----0--------------------------------------------------------|
A|-3----0--------------------------------------------------------|
D|-3----0--------------------------------------------------------|
                               feedback/noise

2:52
e|---------------------------------------------------------------|
B|---------------------------------------------------------------|
G|---------------------------------------------------------------|
D|--------------------------------------------10h12-----12b----\-|
A|-----3---3h5----------------------3---3h5----------------------|
D|-3----------------------------3--------------------------------|
           m                            m

3:06
e|------------------|
B|------------------|
G|------------------|
D|------------------| x13
A|-----3------------|
D|-3-------0--------|

4:37
e|------------------------------------|
B|---------/13-----8/9-8~--------6----|
G|---------/12-----7/8-7~--------5----|
D|-3---3---/10--0--5/6-5----0----3----|
A|-3---3---/10--0--5/6-5----0----3----|
D|-3---3---/10--0--5/6-5----0----3----|

e|----------------------------|
B|-/13-----8/9-8~--------6----|
G|-/12-----7/8-7~--------5----|
D|-/10--0--5/6-5----0----3----| x6
A|-/10--0--5/6-5----0----3----|
D|-/10--0--5/6-5----0----3----|

e|----------------------------|
B|-/13-----8/9-8~-------------|
G|-/12-----7/8-7~-------------|
D|-/10--0--5/6-5--------------|
A|-/10--0--5/6-5--------------|
D|-/10--0--5/6-5----0----3b---|

5:06
e|-----------------------------|
B|-----------------------------|
G|-----------------------------|
D|-----------------------------| x3
A|-----5------3------5------3--|
D|-0-----3~-----5~-----3~------|
         *      *      *
e|-----------------------------|
B|-----------------------------|
G|-----------------------------|
D|-----------------------------|
A|-----5-----------------------|
D|-0-----3b--------------------|

5:16
e|----------------------------|
B|-/13-----8/9-8~--------6----|
G|-/12-----7/8-7~--------5----|
D|-/10--0--5/6-5----0----3----| x4
A|-/10--0--5/6-5----0----3----|
D|-/10--0--5/6-5----0----3----|

5:31
e|-----------------------------|
B|-----------------------------|
G|-----------------------------|
D|-----------------------------| x3
A|-----5------3------5------3--|
D|-0-----3~-----5~-----3~------|

e|-----------------------------|
B|-----------------------------|
G|-----------------------------|
D|-----------------------------| 
A|-----5------3------5---------|
D|-0-----3~-----5~-----3b------|

5:41
e|----------------------------|
B|-/13-----8/9-8~--------6----|
G|-/12-----7/8-7~--------5----|
D|-/10--0--5/6-5----0----3----| x4
A|-/10--0--5/6-5----0----3----|
D|-/10--0--5/6-5----0----3----|

5:55
e|--------------------------------------------------|
B|--------------------------------------------------|
G|--------------------------------------------------|
D|-0---0-3---0-5---0-3---0-0---x-3---x-5---x-1---0--| x2
A|-0---0-3---0-5---0-3---0-0---x-3---x-5---x-1---0--|
E|-0---0-3---0-5---0-3---0-0---x-3---x-5---x-1---0--|

e|--------------------------------------------------|
B|-------6-----8-----6-----------6-----8------------|
G|-------5-----7-----5-----------5-----7------------|
D|-0---0-3---0-5---0-3---0-0---x-3---x-5---x-1---0--| 
A|-0---0-3---0-5---0-3---0-0---x-3---x-5---x-1---0--|
E|-0---0-3---0-5---0-3---0-0---x-3---x-5---x-1---0--|

e|----------------------------------------------------------------|
B|-------6-----8-----6-----------6-----8--------------------------|
G|-------5-----7-----5-----------5-----7--------------------------|
D|-0---0-3---0-5---0-3---0-0---x-3---x-5---x-1---x-1---x-1---x-1--| 
A|-0---0-3---0-5---0-3---0-0---x-3---x-5---x-1---x-1---x-1---x-1--|
E|-0---0-3---0-5---0-3---0-0---x-3---x-5---x-1---x-1---x-1---x-1--|

e|--------------------------------------|
B|--------------------------------------|
G|--------------------------------------|
D|-0-13-13-0-13-13-0-13-13-0-13b--------|
A|-0-13-13-0-13-13-0-13-13-0-13b--------|
D|-0-13-13-0-13-13-0-13-13-0-13b--------|

6:22
e|-----------------------------------|
B|-----------------------------------|
G|-----------------------------------|
D|-0---2-3-0-3p2-0-2-3-0-3p2-0-5-----| x4 - x8 including solo
A|-0---2-3-0-3p2-0-2-3-0-3p2-0-5-----|
D|-0---2-3-0-3p2-0-2-3-0-3p2-0-5-----|

6:48
e|---------------------------------------------------------------|
B|---------------------------------------------------------------|
G|---------------------------------------------------------------|
D|----------------------------------------------------------5----|
A|----------------------------------------------------------5----|
D|-3--3-3-3-3-3-3-3-3-3-3-3-3-3-3-3-3-3-3-3-3-3-3-3-3-3-3-3-5----|
   m  m m m m m m m m m m m m m m m m m m m m m m m m m m m 

e|---------------------------------------|
B|---------------------------------------|
G|---------------------------------------|
D|-0----------------------------------0--|
A|-0----------------------------------0--|
E|-0----------------------------------0--|

>:)

| *  pinch harmonic
| /  slide up
| \  slide down
| h  hammer-on
| p  pull-off
| ~  vibrato
| +  harmonic
| x  Mute note
Tap to rate this tab
 
# A B C D E F G H I J K L M N O P Q R S T U V W X Y Z