Song name
# A B C D E F G H I J K L M N O P Q R S T U V W X Y Z

Tool - Undertow tab

Undertow by Tool

Tabbed by: Radiohead293
Tuning: Drop D

0:00
e|------------------|
B|------------------|
G|------------------|
D|-5h7-7/10-0---0-0-| x4
A|------------------|
D|------------------|

e|------------------|
B|------------------|
G|------------------|
D|-5h7-7/10-0---0-0-| x8
A|-5h7-7/10-0---0-0-|
D|-5h7-7/10-0---0-0-|
                m m 

0:18
e|----------------------------------|
B|----------------------------------|
G|----------------------------------|
D|----------------------------------| x2
A|----------------------------------|
D|-5/7-7-10---0-13-12---------------|

e|----------------------------------|
B|----------------------------------|
G|----------------------------------|
D|-5/7-7-10---0-13-12---------------| x2
A|-5/7-7-10---0-13-12---------------|
D|-5/7-7-10---0-13-12---------------|

0:36
e|----------------------------------|
B|-------2------5------7------------|
G|-----2-----/5-----/7--------------|
D|-0-0------------------------------| x4
A|----------------------------------|
D|----------------------------------|

0:54
e|----------------------------------|
B|----------------------------------|
G|----------------------------------|
D|---------2---2--------------------|
A|---------------3---3-0---0-0-0-xx-|
D|-2---2-2--------------------------|
                                     }x2
e|----------------------------------|
B|----------------------------------|
G|----------------------------------|
D|---------2---2--------------------|
A|---------------3---3-0---0-0-0-xx-|
D|-2b--2-2--------------------------|

1:06
e|-----------------------------------|
B|-----------------------------------|
G|-----------------------------------|
D|-2--xxx-14---x-10---x-7---7-7-7-xx-| x3
A|-2--xxx-14---x-10---x-7---7-7-7-xx-|
D|-2--xxx-14---x-10---x-7---7-7-7-xx-|

e|-----------------------------------|
B|-----------------------------------|
G|-----------------------------------|
D|-2--xxx-14---x-10---x-5---5-5-5----|
A|-2--xxx-14---x-10---x-5---5-5-5----|
D|-2--xxx-14---x-10---x-5---5-5-5----|

1:18
e|---------------------------|-------------------------------|
B|---------------------------|-------------------------------|
G|---------------------------|-------------------------------|
D|---------------------------|-------------------------------|
A|---------------------------|-------------------------------|
D|-5-3-0-2-1-0-5-3-0-1-0-6-0-|-5-3-0-2-1-0-5-3-0-1-0-3-0-6-0-|
   m m m m m m m m m m m m m   m m m m m m m m m m m m m m m

e|---------------------------|----------------------------------------------|
B|---------------------------|----------------------------------------------|
G|---------------------------|----------------------------------------------|
D|---------------------------|---------------------------6----8----3----0---|
A|---------------------------|---------------------------6----8----3----0---|
D|-5-3-0-2-1-0-5-3-0-1-0-6-0-|-5-3-0-2-1-0-5-3-0-1-0-3-0-6----8----3----0---|
   m m m m m m m m m m m m m   m m m m m m m m m m m m m

1:31
e|------------------|
B|------------------|
G|------------------|
D|-5h7-7/10-0---0-0-| x4
A|------------------|
D|------------------|

e|------------------|
B|------------------|
G|------------------|
D|-5h7-7/10-0---0-0-| x8
A|-5h7-7/10-0---0-0-|
D|-5h7-7/10-0---0-0-|
                m m 

1:49
e|----------------------------------|
B|----------------------------------|
G|----------------------------------|
D|----------------------------------| 
A|----------------------------------|
D|-5/7-7-10---0-13-12---------------|

e|----------------------------------|
B|----------------------------------|
G|----------------------------------|
D|----------------------------------| 
A|-----------------9*---------------|
D|-5/7-7-10---0-13*-----------------|

e|----------------------------------|
B|----------------------------------|
G|----------------------------------|
D|-5/7-7-10---0-13-12---------------| x2
A|-5/7-7-10---0-13-12---------------|
D|-5/7-7-10---0-13-12---------------|

2:07
e|----------------------------------|
B|-------2------5------7------------|
G|-----2-----/5-----/7--------------|
D|-0-0------------------------------| x4
A|----------------------------------|
D|----------------------------------|

2:25
e|----------------------------------|
B|----------------------------------|
G|----------------------------------|
D|---------2---2--------------------|
A|---------------3---3-0---0-0-0-xx-|
D|-2---2-2--------------------------|
                                     }x2
e|----------------------------------|
B|----------------------------------|
G|----------------------------------|
D|---------2---2--------------------|
A|---------------3---3-0---0-0-0-xx-|
D|-2b--2-2--------------------------|

2:37
e|-----------------------------------|
B|-----------------------------------|
G|-----------------------------------|
D|-2--xxx-14---x-10---x-7---7-7-7-xx-| x4
A|-2--xxx-14---x-10---x-7---7-7-7-xx-|
D|-2--xxx-14---x-10---x-7---7-7-7-xx-|

2:49
e|-----------------------------------|
B|-5--xxx-17---x-13---x-10--101010---|
G|-4--xxx-16---x-12---x-9---9-9-9----|
D|-2--xxx-14---x-10---x-7---7-7-7-xx-| x3
A|-2--xxx-14---x-10---x-7---7-7-7-xx-|
D|-2--xxx-14---x-10---x-7---7-7-7-xx-|

e|-----------------------------------|
B|-5--xxx-17---x-13---x-8---8-8-8-8--|
G|-4--xxx-16---x-12---x-7---7-7-7-7--|
D|-2--xxx-14---x-10---x-5---5-5-5-5--| 
A|-2--xxx-14---x-10---x-5---5-5-5-5--|
D|-2--xxx-14---x-10---x-5---5-5-5-5--|

3:01
e|---------------------------|-------------------------------|
B|---------------------------|-------------------------------|
G|---------------------------|-------------------------------|
D|-5-3-0-2-1-0-5-3-0-1-0-6-0-|-5-3-0-2-1-0-5-3-0-1-0-3-0-6-0-| x2
A|-5-3-0-2-1-0-5-3-0-1-0-6-0-|-5-3-0-2-1-0-5-3-0-1-0-3-0-6-0-|
D|-5-3-0-2-1-0-5-3-0-1-0-6-0-|-5-3-0-2-1-0-5-3-0-1-0-3-0-6-0-|

e|---------------------------|-------------------------------|
B|---------------------------|-------------------------------|
G|---------------------------|-------------------------------|
D|---------------------------|-------------------------------| x3
A|---------------------------|-------------------------------|
D|-5-3-0-2-1-0-5-3-0-1-0-6-0-|-5-3-0-2-1-0-5-3-0-1-0-3-0-6-0-|
   m m m m m m m m m m m m m   m m m m m m m m m m m m m m m

e|---------------------------|-------------------------------------------|
B|---------------------------|-------------------------------------------|
G|---------------------------|-------------------------------------------|
D|---------------------------|-------------------------------------------|
A|---------------------------|-------------------------------------------|
D|-5-3-0-2-1-0-5-3-0-1-0-6-0-|-5-3-0-2-1-0-5-3-0-1-0---3-0---6-0---7-0---|
   m m m m m m m m m m m m m   m m m m m m m m m m m   m m   m m   m m 

e|------------------------------------------------------------------|
B|------------------------------------------------------------------|
G|------------------------------------------------------------------|
D|------------------------------------------------------------------|
A|------------------------------------------------------------------|
D|-10-0---11-0---12--15---x--x--5--8---x--3---3-0---x-x---x-x-x-x-x-|
   m  m   m  m  

e|----------------------------------------------|
B|----------------------------------------------|
G|----------------------------------------------|
D|---------------------------------3-------6----|
A|---------------------------------3-------6----|
D|-12--15---x--x--5-6-5-0----------3-------6----|

3:48
e|-----------------------------------------|
B|-----------------------------------------|
G|-----------------------------------------|
D|-12-15-0-0-5-8-0-3---3-0---0-0---0-0-0---|
A|-12-15-0-0-5-8-0-3---3-0---0-0---0-0-0---|
D|-12-15-0-0-5-8-0-3---3-0---0-0---0-0-0---|

e|-----------------------------------------|
B|-----------------------------------------|
G|-----------------------------------------|
D|-12-15-0-0-5-6-0-3---3-0---0-0---0-0-0---|
A|-12-15-0-0-5-6-0-3---3-0---0-0---0-0-0---|
D|-12-15-0-0-5-6-0-3---3-0---0-0---0-0-0---|

e|-----------------------------------------|
B|-----------------------------------------|
G|-----------------------------------------|
D|-12-15-0-0-5-8-0-3---3-0---0-0---0-0-0---|
A|-12-15-0-0-5-8-0-3---3-0---0-0---0-0-0---|
D|-12-15-0-0-5-8-0-3---3-0---0-0---0-0-0---|

e|-----------------------------------------|
B|-----------------------------------------|
G|-----------------------------------------|
D|-12-15-0-0-5-6-5-0-------3-------6-------|
A|-12-15-0-0-5-6-5-0-------3-------6-------|
D|-12-15-0-0-5-6-5-0-------3-------6-------|
                                               all of the above x2
e|----------------------------------|
B|----------------------------------|
G|----------------------------------|
D|-7-------10-------11----12-15-0---|
A|-7-------10-------11----12-15-0---|
D|-7-------10-------11----12-15-0---|

e|---------------------------------------------------|
B|---------------------------------------------------|
G|---------------------------------------------------|
D|-3-------6--------7-------10-------11----12-15-0---| x3
A|-3-------6--------7-------10-------11----12-15-0---|
D|-3-------6--------7-------10-------11----12-15-0---|

4:54
e|---------------------------------|
B|---------------------------------|
G|---------------------------------|
D|---------------0-12-15-----------| x8
A|-------0-12-15---------0-12-15---|
D|-12-15-------------------------0-|

5:05
e|-----------------------|
B|-----------------------|
G|-----------------------|
D|-5-3-0-2-1-0-5-3-0-2-1-| x3
A|-5-3-0-2-1-0-5-3-0-2-1-|
D|-5-3-0-2-1-0-5-3-0-2-1-|

e|-----------------------|
B|-----------------------|
G|-----------------------|
D|-5-3-0-2-1-0-5-3-0-----|
A|-5-3-0-2-1-0-5-3-0-----|
D|-5-3-0-2-1-0-5-3-0-----|


That's it, enjoy! :)


| *  pinch harmonic
| /  slide up
| \  slide down
| h  hammer-on
| p  pull-off
| ~  vibrato
| +  harmonic
| x  Mute note
Tap to rate this tab
# A B C D E F G H I J K L M N O P Q R S T U V W X Y Z