Song name
# A B C D E F G H I J K L M N O P Q R S T U V W X Y Z

Tool - Crawl Away tab

Crawl Away by Tool

Tabbed by: Radiohead293

Tuning: Drop D

0:19
e|--------------------------------|
B|--------------------------------|
G|--------------------------------|
D|--------------------------------| play with volume knob off, then turn up
A|-7----------------(7b)--(7br)---|
D|--------------------------------|

0:25
e|---------------------------------|
B|---------------2-----------------|
G|---------3-------------3-----3---|
D|-2/4-4-4-----4-----4-4-----4---4-| x3
A|---------------------------------|
D|---------------------------------|

e|---------------------------------|
B|---------------2b----------------|
G|---------3-------------0---------|
D|-2/4-4-4-----4-------------------| 
A|---------------------------------|
D|---------------------------------|

0:36
e|---------------------------------------------------------------|
B|---------------------------------------------------------------|
G|---------------------------------------------------------------|
D|-2-4-4-2-4---2-4--4--4--4-4-x-x-2-4-4-2-4---2-4--4-------------|
A|-2-4-4-2-4---2-4--4--4--4-4-x-x-2-4-4-2-4---2-4--4-------------|
D|-2-4-4-2-4---2-4--4--4--4-4-x-x-2-4-4-2-4---2-4--4--/12~-12-12-| 
                                                                  } x2
e|---------------------------------------------------------------|
B|---------------------------------------------------------------|
G|---------------------------------------------------------------|
D|-2-4-4-2-4---2-4--4--4--4-4-x-x-2-4-4-2-4---2-4--4--2-10-9-7---|
A|-2-4-4-2-4---2-4--4--4--4-4-x-x-2-4-4-2-4---2-4--4--2-10-9-7---|
D|-2-4-4-2-4---2-4--4--4--4-4-x-x-2-4-4-2-4---2-4--4--2-10-9-7---|

1:01
e|-------------------------------------------------------------------|
B|-------------------------------------------------------------------|
G|-------------------------------------------------------------------|
D|-14---x-x-14--x-14--14--14--14-14-x-2-4-4-2-4---2-4--4-------------|
A|-14---x-x-14--x-14--14--14--14-14-x-2-4-4-2-4---2-4--4-------------|
D|-14---x-x-14--x-14--14--14--14-14-x-2-4-4-2-4---2-4--4--/12~-12-12-|

e|-------------------------------------------------------------------|
B|-------------------------------------------------------------------|
G|-------------------------------------------------------------------|
D|-14---x-x-14--x-14--14--14--14-14--/16---16-16-16------------------|
A|-14---x-x-14--x-14--14--14--14-14--/16---16-16-16--16b-------------|
D|-14---x-x-14--x-14--14--14--14-14--/16---16-16-16------------------|

1:13
e|-----------------------------|
B|-----------------------------|
G|-----------------------------|
D|-----------------------------| x2
A|-16~--16-16-16~-16-14~-------|
D|-----------------------------|

e|-------------------------------------------------------------------|
B|-------------------------------------------------------------------|
G|-------------------------------------------------------------------|
D|-------------------------------------------------------------------|
A|-14h16-14h16-16--14-16*b-----------16---16-16-16-------------------|
D|--------------------------------------------------14-14b--------\--|
                      ph*

"crawling away from me..."

1:37
e|------------|
B|------------|
G|------------|
D|------------|
A|------------|
D|-7-10-9-7---|

e|---------------------------------------------------------------|
B|---------------------------------------------------------------|
G|---------------------------------------------------------------|
D|---------------------------------------------------------------|
A|-2-4-4-2-4---2-4--4--4--4-4-x-x-2-4-4-2-4---2-4--4--12--12-12--|
D|-2-4-4-2-4---2-4--4--4--4-4-x-x-2-4-4-2-4---2-4--4--12--12-12--|
   m m m m m   m m  m  m  m m     m m m m m   m m  m

e|----------------------------------------------------------------|
B|----------------------------------------------------------------|
G|----------------------------------------------------------------|
D|----------------------------------------------------------------|
A|-2-4-4-2-4---2-4--4--4--4-4-x-x-2-4-4-4-4-4-4-4-4-4-4-4-4-4-4-4-|
D|-2-4-4-2-4---2-4--4--4--4-4-x-x-2-4-4-4-4-4-4-4-4-4-4-4-4-4-4-4-|
   m m m m m   m m  m  m  m m     m m m m m m m m m m m m m m m m

1:50 
e|---------------------------------------------------------------|
B|---------------------------------------------------------------|
G|---------------------------------------------------------------|
D|-2-4-4-2-4---2-4--4--4--4-4-x-x-2-4-4-2-4---2-4--4-------------|
A|-2-4-4-2-4---2-4--4--4--4-4-x-x-2-4-4-2-4---2-4--4-------------|
D|-2-4-4-2-4---2-4--4--4--4-4-x-x-2-4-4-2-4---2-4--4--/12~-12-12-| 
                                                                 
e|---------------------------------------------------------------|
B|---------------------------------------------------------------|
G|---------------------------------------------------------------|
D|-2-4-4-2-4---2-4--4--4--4-4-x-x-2-4-4-2-4---2-4--4--2-10-9-7---|
A|-2-4-4-2-4---2-4--4--4--4-4-x-x-2-4-4-2-4---2-4--4--2-10-9-7---|
D|-2-4-4-2-4---2-4--4--4--4-4-x-x-2-4-4-2-4---2-4--4--2-10-9-7---|

2:03
e|--------------------------------------------------------|
B|------------------------9+------------------------------|
G|--------------------9+----9+----------------------------|
D|-4---7---10---9-------9+-----4---7---10---9---9-9-9-9-9-| x2
A|-4---7---10---9---9+---------4---7---10---9---9-9-9-9-9-|
D|-4---7---10---9--------------4---7---10---9---9-9-9-9-9-|
                                                m m m m m 

2:17
e|------------------------------------------------------------------|
B|------------------------------------------------------------------|
G|------------------------------------------------------------------|
D|------------------------------------------------------------------|
A|------------------------------------------------------------------|
D|-2-4-4-2-4~--2-4--4--4~-4-4-xx-2-4-4-2-4~--2-4--4--/12~--12-12-12-|

e|-------------------------------------------------------------------------|
B|-------------------------------------------------------------------------|
G|-------------------------------------------------------------------------|
D|-16*--16*16*16*--16*16*-16*-16*-16*16*-xx16*--16*16*16*--16*16*-16*-16b-\|
A|-------------------------------------------------------------------------|
D|-------------------------------------------------------------------------|

"crawled away from me..."

2:41
e|----------|
B|----------|
G|----------|
D|----------|
A|----------|
D|-10-9-7---|

e|--------------------------------------------------------------|
B|--------------------------------------------------------------|
G|--------------------------------------------------------------|
D|---------------------------2h4----------------------7---------|
A|------------------2*-4*--------------------------4--5---------|
D|-2-4-x-x-4---x-4----------------2-4-x-x-4---x-4---------------|

e|--------------------------------------------------------------|
B|--------------------------------------------------------------|
G|--------------------------------------------------------------|
D|--------------------------------------------------------------|
A|--------------------------------------------------------------|
D|-2-4-x-x-4---x-4-x-4-x-4---xx-2-4-4-4-4-4-4-4-4-4-4-4-4-4-4-4-|
                                m m m m m m m m m  

2:54  
e|---------------------------------------------------------------|
B|---------------------------------------------------------------|
G|---------------------------------------------------------------|
D|-2-4-4-2-4---2-4--4--4--4-4-x-x-2-4-4-2-4---2-4--4-------------|
A|-2-4-4-2-4---2-4--4--4--4-4-x-x-2-4-4-2-4---2-4--4-------------|
D|-2-4-4-2-4---2-4--4--4--4-4-x-x-2-4-4-2-4---2-4--4--/12~-12-12-| 
                                                                 
e|---------------------------------------------------------------|
B|---------------------------------------------------------------|
G|---------------------------------------------------------------|
D|-2-4-4-2-4---2-4--4--4--4-4-x-x-2-4-4-2-4---2-4--4--2-10-9-7---|
A|-2-4-4-2-4---2-4--4--4--4-4-x-x-2-4-4-2-4---2-4--4--2-10-9-7---|
D|-2-4-4-2-4---2-4--4--4--4-4-x-x-2-4-4-2-4---2-4--4--2-10-9-7---|

3:06
e|--------------------------------------------------------|
B|------------------------9+------------------------------|
G|--------------------9+----9+----------------------------|
D|-4---7---10---9-------9+-----4---7---10---9---9-9-9-9-9-| x2
A|-4---7---10---9---9+---------4---7---10---9---9-9-9-9-9-|
D|-4---7---10---9--------------4---7---10---9---9-9-9-9-9-|
                                                
3:20
e|-------------------------------------|
B|-------------------------------------|
G|-------------------------------------|
D|-2-5-5-2-4---------------------------| x3
A|-2-5-5-2-4---------------------------|
D|-2-5-5-2-4---------------------------|

e|-------------------------------------|
B|-------------------------------------|
G|-------------------------------------|
D|-2-5-5-2-4---------------------------| 
A|-2-5-5-2-4-----------------x\--------|
D|-2-5-5-2-4---------------------------|
                           scrape

e|-------------------------------------|
B|-------------------------------------|
G|-------------------------------------|
D|-2-5-5-2-4---xxxx-4---xxxx-4----xxxx-| x3
A|-2-5-5-2-4---xxxx-4---xxxx-4----xxxx-|
D|-2-5-5-2-4---xxxx-4---xxxx-4----xxxx-|

3:44
e|----------------------------------------------------------------------|
B|----------------------------------------------------------------------|
G|----------------------------------------------------------------------|
D|-2-5-5-2--------------------------------------------------------------|
A|-2-5-5-2--------------------------------------------------------------|
D|-2-5-5-2-4444444444444444444444444444444444444/1616161616161616161616-|
           palm mute all/ fast picking

e|----------------------------------------------------------------------|
B|----------------------------------------------------------------------|
G|----------------------------------------------------------------------|
D|----------------------------------------------------------------------|
A|----------------------------------------------------------------------|
D|-16161616161616161616161616b16b16b16b16b16b16b16b16b16b16b16b16b16b16\|

e|----------------------------------------------------------------------|
B|----------------------------------------------------------------------|
G|----------------------------------------------------------------------|
D|----------------------------------------------------------------------|
A|----------------44444444444444445555555555555555222222222222222244444-|
D|-444444444444444------------------------------------------------------|

e|----------------------------------------------------------------------|
B|----------------------------------------------------------------------|
G|----------------------------------------------------------------------|
D|----------------------------------------4b----------------------------|
A|-44444444444----------------------------------------------------------|
D|------------22222222222222222-4b-2-4b-2-------------------------------|

4:09
e|---------------------------------------------------------------|
B|---------------------------------------------------------------|
G|---------------------------------------------------------------|
D|-2-4-4-2-4---2-4--4--4--4-4-x-x-2-4-4-2-4---2-4--4-------------|
A|-2-4-4-2-4---2-4--4--4--4-4-x-x-2-4-4-2-4---2-4--4-------------|
D|-2-4-4-2-4---2-4--4--4--4-4-x-x-2-4-4-2-4---2-4--4--/12~-12-12-| 
                                                                 
e|---------------------------------------------------------------|
B|---------------------------------------------------------------|
G|---------------------------------------------------------------|
D|-2-4-4-2-4---2-4--4--4--4-4-x-x-2-4-4-2-4---2-4--4--2-10-9-7---|
A|-2-4-4-2-4---2-4--4--4--4-4-x-x-2-4-4-2-4---2-4--4--2-10-9-7---|
D|-2-4-4-2-4---2-4--4--4--4-4-x-x-2-4-4-2-4---2-4--4--2-10-9-7---|

4:21
e|-------------------------------------------------------------------|
B|-------------------------------------------------------------------|
G|-------------------------------------------------------------------|
D|-14---x-x-14--x-14--14--14--14-14--/16---16-16-16---16b------------|
A|-14---x-x-14--x-14--14--14--14-14--/16---16-16-16------------------|
D|-14---x-x-14--x-14--14--14--14-14--/16---16-16-16------------------|

e|-------------------------------------------------------------------|
B|-------------------------------------------------------------------|
G|-------------------------------------------------------------------|
D|-14---x-x-14--x-14--14--14--14-14----------------------------------|
A|-14---x-x-14--x-14--14--14--14-14----------------------------------|
D|-14---x-x-14--x-14--14--14--14-14--h16--14-16-14-16-14-16b~--------|

4:46
e|--------------------------------------------------------------|
B|--------------------------------------------------------------|
G|--------------------------------------------------------------|
D|---------------------------2h4----------------------7---------|
A|------------------2*-4*--------------------------4--5---------|
D|-2-4-x-x-4---x-4----------------2-4-x-x-4---x-4---------------|

e|--------------------------------------------------------------|
B|--------------------------------------------------------------|
G|--------------------------------------------------------------|
D|--------------------------------------------------------------|
A|--------------------------------------------------------------|
D|-2-4-x-x-4---x-4-x-4-x-4---xx-2-4-4-4-4-4-4-4-4-4-4-4-4-4-4-4-|
                                m m m m m m m m m  

4:58
e|---------------------------------------------------------------|
B|---------------------------------------------------------------|
G|---------------------------------------------------------------|
D|-2-4-4-2-4---2-4--4--4--4-4-x-x-2-4-4-2-4---2-4--4-------------|
A|-2-4-4-2-4---2-4--4--4--4-4-x-x-2-4-4-2-4---2-4--4-------------|
D|-2-4-4-2-4---2-4--4--4--4-4-x-x-2-4-4-2-4---2-4--4--/12~-12-12-| 
                                                                 
e|---------------------------------------------------------------|
B|---------------------------------------------------------------|
G|---------------------------------------------------------------|
D|-2-4-4-2-4---2-4--4--4--4-4-x-x-2-4-4-2-4---2-4--4--2-10-9-7---|
A|-2-4-4-2-4---2-4--4--4--4-4-x-x-2-4-4-2-4---2-4--4--2-10-9-7---|
D|-2-4-4-2-4---2-4--4--4--4-4-x-x-2-4-4-2-4---2-4--4--2-10-9-7---|

5:10
e|--------------------------------------------------------|
B|------------------------9+------------------------------|
G|--------------------9+----9+----------------------------|
D|-4---7---10---9-------9+-----4---7---10---9---9-9-9-9-9-| x2
A|-4---7---10---9---9+---------4---7---10---9---9-9-9-9-9-|
D|-4---7---10---9--------------4---7---10---9---9-9-9-9-9-|
                                                m m m m m 

e|------------|
B|------------|
G|------------|
D|-2-5-5-2-4--|
A|-2-5-5-2-4--|
D|-2-5-5-2-4--|

The end, have fun :)

| /  slide up
| \  slide down
| h  hammer-on
| p  pull-off
| ~  vibrato
| +  harmonic
| x  Mute note
Tap to rate this tab
# A B C D E F G H I J K L M N O P Q R S T U V W X Y Z