Song name
# A B C D E F G H I J K L M N O P Q R S T U V W X Y Z

Tool - Aenema tab

Aenema by Tool

Tabbed by: Radiohead293

0:06
e|-----------------------------|
B|-------0---------------------|
G|-------0---------------------|
D|-2p0h2-0-2p0-2p0h2-----------| x8
A|-2p0h2---2p0-2p0h2-----------|
D|-2p0h2---2p0-2p0h2-----------|

0:21
e|-x---x-x-x---x---x-x-x---|      e|-x---x-x-x---x---x-x-x-x-|
B|-x---x-x-x---x---x-x-x---|      B|-x---x-x-x---x---x-x-x-x-|
G|-x---x-x-x---x---x-x-x---|      G|-x---x-x-x---x---x-x-x-x-|
D|-------------------------| x3   D|-------------------------|
A|-------------------------|      A|-------------------------|
D|-------------------------|      D|-------------------------|

e|-x---x-x-x---x---x-x-x---|      e|-x---x-x-x---x---x-------|
B|-x---x-x-x---x---x-x-x---|      B|-x---x-x-x---x---x-------|
G|-x---x-x-x---x---x-x-x---|      G|-x---x-x-x---x---x-0-----|
D|-------------------------| x3   D|-------------------0-----|
A|-------------------------|      A|-------------------------|
D|-------------------------|      D|-------------------------|

0:37
e|-------x-----------x-----------x-----------x-----|
B|-------x-----------x-----------x-----------x-----|
G|-------x-----------x-----------x-----------x-----|
D|-------------------------------------------------|
A|-------------------------------------------------|
D|-2p0h2---2p0-2p0h2---2p0-2p0h2---2p0-2p0h2---4p0-|
   m       m   m       m   m       m   m       m
                                                     
e|-------x-----------x-----------x-----------x-----|
B|-------x-----------x-----------x-----------x-----|
G|-------x-----------x-----------x-----------x-----|
D|-------------------------------------------------|
A|-------------------------------------------------|
D|-5p0h5---5p0-5p0h5---5p0-5p0h5---5p0-5p0h5---4p0-|
   m       m   m       m   m       m   m       m 

e|-------0-----------0-----------0-----------0-----|
B|-------0-----------0-----------0-----------0-----|
G|-------------------------------------------------|
D|-------------------------------------------------|
A|-------------------------------------------------|
D|-2p0h2---2p0-2p0h2---2p0-2p0h2---2p0-2p0h2---4p0-|
   m       m   m       m   m       m   m       m

e|-------x-----------x-----------x-----------------|
B|-------x-----------x-----------x-----------------|
G|-------x-----------x-----------x-----------------|
D|------------------------------------/5-5-5-0-----|
A|------------------------------------/5-5-5-0-----|
D|-5p0h5---5p0-5p0h5---5p0-5p0h5---5p0/5-5-5-0-----|
   m       m   m       m   m       

0:53
e|--------------------------------------------------|
B|--------------------------------------------------|
G|--------------------------------------------------|
D|-2-----x-x-x-2-----x-x-x-2-----x-x-x-/5-----0-----|
A|-2-----x-x-x-2-----x-x-x-2-----x-x-x-/5-----0-----|
D|-2-----x-x-x-2-----x-x-x-2-----x-x-x-/5-----0-----|

e|--------------------------------------------------|
B|--------------------------------------------------|
G|--------------------------------------------------|
D|-2-----x-x-x-2-----x-x-x-2-----x-x-x-/3-----0-----|
A|-2-----x-x-x-2-----x-x-x-2-----x-x-x-/3-----0-----|
D|-2-----x-x-x-2-----x-x-x-2-----x-x-x-/3-----0-----|

e|--------------------------------------------------|
B|--------------------------------------------------|
G|--------------------------------------------------|
D|-2-----x-x-x-2-----x-x-x-2-----x-x-x-/10----0-----|
A|-2-----x-x-x-2-----x-x-x-2-----x-x-x-/10----0-----|
D|-2-----x-x-x-2-----x-x-x-2-----x-x-x-/10----0-----|

1:09
e|------------------------------------------------|
B|------------------------------------------------|
G|------------------------------------------------|
D|------------------------------------------------| x2
A|-h2----------------------------------/5----p0---|
D|-h2----------------------------------/5----p0---|

1:17
e|-x---x-x-x---x---x-x-x---|      e|-x---x-x-x---x---x-x-x-x-|
B|-x---x-x-x---x---x-x-x---|      B|-x---x-x-x---x---x-x-x-x-|
G|-x---x-x-x---x---x-x-x---|      G|-x---x-x-x---x---x-x-x-x-|
D|-------------------------| x3   D|-------------------------|
A|-------------------------|      A|-------------------------|
D|-------------------------|      D|-------------------------|

e|-x---x-x-x---x---x-x-x---|      e|-x---x-x-x---x---x-------|
B|-x---x-x-x---x---x-x-x---|      B|-x---x-x-x---x---x-------|
G|-x---x-x-x---x---x-x-x---|      G|-x---x-x-x---x---x-0-----|
D|-------------------------| x3   D|-------------------0-----|
A|-------------------------|      A|-------------------------|
D|-------------------------|      D|-------------------------|

1:33
e|-------x-----------x-----------x-----------x-----|
B|-------x-----------x-----------x-----------x-----|
G|-------x-----------x-----------x-----------x-----|
D|-------------------------------------------------|
A|-------------------------------------------------|
D|-2p0h2---2p0-2p0h2---2p0-2p0h2---2p0-2p0h2---4p0-|
   m       m   m       m   m       m   m       m
                                                     
e|-------x-----------x-----------x-----------x-----|
B|-------x-----------x-----------x-----------x-----|
G|-------x-----------x-----------x-----------x-----|
D|-------------------------------------------------|
A|-------------------------------------------------|
D|-5p0h5---5p0-5p0h5---5p0-5p0h5---5p0-5p0h5---4p0-|
   m       m   m       m   m       m   m       m 

e|-------0-----------0-----------0-----------0-----|
B|-------0-----------0-----------0-----------0-----|
G|-------------------------------------------------|
D|-------------------------------------------------|
A|-------------------------------------------------|
D|-2p0h2---2p0-2p0h2---2p0-2p0h2---2p0-2p0h2---4p0-|
   m       m   m       m   m       m   m       m

e|-------x-----------x-----------------------------|
B|-------x-----------x-----------0-----------------|
G|-------x-----------x-----------0-----------------|
D|-------------------------5p0h5---5p0/5-5-5-0-----|
A|-------------------------5p0h5---5p0/5-5-5-0-----|
D|-5p0h5---5p0-5p0h5---5p0-5p0h5---5p0/5-5-5-0-----|
   m       m   m             

1:48
e|--------------------------------------------------|
B|--------------------------------------------------|
G|--------------------------------------------------|
D|-2-----x-x-x-2-----x-x-x-2-----x-x-x-/5-----0-----|
A|-2-----x-x-x-2-----x-x-x-2-----x-x-x-/5-----0-----|
D|-2-----x-x-x-2-----x-x-x-2-----x-x-x-/5-----0-----|

e|--------------------------------------------------|
B|--------------------------------------------------|
G|--------------------------------------------------|
D|-2-----x-x-x-2-----x-x-x-2-----x-x-x-/3-----0-----|
A|-2-----x-x-x-2-----x-x-x-2-----x-x-x-/3-----0-----|
D|-2-----x-x-x-2-----x-x-x-2-----x-x-x-/3-----0-----|

e|-------------------------------------------------------|
B|-------------------------------------------------------|
G|-------------------------------------------------------|
D|-2-----x-x-x-2-----x-x-x-2-----x-x-x-/10-10-10-12\-----|
A|-2-----x-x-x-2-----x-x-x-2-----x-x-x-/10-10-10-12\-----|
D|-2-----x-x-x-2-----x-x-x-2-----x-x-x-/10-10-10-12\-----|

2:04
e|------------------------------------------------------------|
B|------------------------------------------------------------|
G|------------------------------------------------------------|
D|-0-0-0-0-0-0-10-10-10-12\-----2-2-2-2-2-2-/10-10-10-12\-----| x2
A|-0-0-0-0-0-0-10-10-10-12\-----2-2-2-2-2-2-/10-10-10-12\-----|
D|-0-0-0-0-0-0-10-10-10-12\-----2-2-2-2-2-2-/10-10-10-12\-----|

e|-------------------------------------------------------------|
B|-------------------------------------------13-13-13-15-15-15-|
G|-------------------------------------------12-12-12-14-14-14-|
D|-0-0-0-0-0-0-10-10-10-12\-----2-2-2-2-2-2-/10-10-10-12-12-12-| 
A|-0-0-0-0-0-0-10-10-10-12\-----2-2-2-2-2-2-/10-10-10-12-12-12-|
D|-0-0-0-0-0-0-10-10-10-12\-----2-2-2-2-2-2-/10-10-10-12-12-12-|

e|------------------------------------------------|
B|-15-15-15-15-15-15-13-13-13-15\-----5-----------|
G|-14-14-14-14-14-14-12-12-12-14\-----4-----------|
D|-12-12-12-12-12-12-10-10-10-12\-----2-----------|
A|-12-12-12-12-12-12-10-10-10-12\-----2-----------|
D|-12-12-12-12-12-12-10-10-10-12\-----2-----------|

2:35 volume down, delay + flange
e|------------------------------------------------------------------|
B|------------------------------------------------------------------|
G|------------------------------------------------------------------|
D|-9---------------7----------------10-------------pb8^9-br---------|
A|------------------------------------------------------------------|
D|------------------------------------------------------------------|

e|------------------------------------------------------------------|
B|------------------------------------------------------------------|
G|------------------------------------------------------------------|
D|-9---------------7-----------------------------------------0------|
A|----------------------------------10---------------9\-------------|
D|------------------------------------------------------------------|

2:51
e|----------------------------------------------------------------|
B|----------------------------------------------------------------|
G|----------------------------------------------------------------|
D|-2-----------------------------2/5-------------------------5\---| x2
A|-2-----------------------------2/5-------------------------5\---|
D|-2-----------------------------2/5-------------------------5\---|
        volume up    volume down        volume up volume down

e|----------------------------------------------------------------|
B|----------------------------------------------------------------|
G|--------------------------------/5------------------------------|
D|-2---------------2-------------2/5------------------------------| 
A|-2---------------2-------------2/5---------------------3-/-5----|
D|-2---------------2-------------2/5------------------------------|
        volume up           

3:37
e|-------------------------------------------------------------------------|
B|-------------------------------------------------------------------------|
G|-------------9---\-------------9---\-------------9---\-------------9---\-|
D|-7/9---7/9---------7/9---7/9---------7/9---7/9---------7/9---7/9---------|
A|-------------------------------------------------------------------------|
D|-------------------------------------------------------------------------|

e|-------------------------------------------------------------------------|
B|------------------------------------------------------------------12---\-|
G|------------12----------------12\----------------12\---------------------|
D|/12---------------------------12\----------------------/12---------------|
A|------------------------------------/12----------------------------------|
D|-------------------------------------------------------------------------|

e|-------------------------------------------------------------------------|
B|-------------------------------------------------------------------------|
G|-------------9---\-------------9---\-/9--9-9--9---------12-\------14-----|
D|-7/9---------------7/9---------------------------9-----------------------|
A|-------------------------------------------------------------------------|
D|-------------------------------------------------------------------------|

e|------------------------------------------------------------------12-----|
B|------------------------------12\------12\------12\------12\------12-----|
G|------------12----------------12\------12\------12\------12\------12-----|
D|/12---------------------------12\------12\------12\------12\-------------|
A|-------------------------------------------------------------------------|
D|-------------------------------------------------------------------------|

4:10
e|-------------|     e|-------------|     e|-------------|
B|-------------|     B|-------------|     B|-5-555-5-555-|
G|-------------|     G|-------------|     G|-4-444-4-444-|
D|-------------| x3  D|-------------| x3  D|-2-222-2-222-| x2
A|-------------|     A|-------------|     A|-2-222-2-222-|
D|-2-2-2-2-2-2-|     D|-2-222-2-2-2-|     D|-2-222-2-222-|
   m m m m m m          m mmm m m m 

e|----------------------------------------|
B|-8--------------------------------------|
G|-7------------------------------+5------|
D|-5-------------------------+5-----------|
A|-5--------------------------------------|
D|-5--------------------------------------|
      

e|-------------|     e|-------------|     e|-------------|
B|-------------|     B|-------------|     B|-5-555-5-555-|
G|-------------|     G|-------------|     G|-4-444-4-444-|
D|-------------| x3  D|-------------| x3  D|-2-222-2-222-| x2
A|-------------|     A|-------------|     A|-2-222-2-222-|
D|-2-2-2-2-2-2-|     D|-2-222-2-2-2-|     D|-2-222-2-222-|
   m m m m m m          m mmm m m m 

e|----------------------------------------|
B|-8--------------------------------------|
G|-7--------------------------------------|
D|-5--------------------------------------|
A|-5--------------------------------------|
D|-5--------------------------------------|
      

e|-------------|     e|-------------|     e|-------------|
B|-------------|     B|-------------|     B|-5-555-5-555-|
G|-------------|     G|-------------|     G|-4-444-4-444-|
D|-------------| x3  D|-------------| x3  D|-2-222-2-222-| x2
A|-------------|     A|-------------|     A|-2-222-2-222-|
D|-2-2-2-2-2-2-|     D|-2-222-2-2-2-|     D|-2-222-2-222-|
   m m m m m m          m mmm m m m 

e|---------------------------|
B|-8-8-8-8-8-8-8-8-8-8-8-8-8-|
G|-7-7-7-7-7-7-7-7-7-7-7-7-7-|
D|-5-5-5-5-5-5-5-5-5-5-5-5-5-| x2
A|-5-5-5-5-5-5-5-5-5-5-5-5-5-|
D|-5-5-5-5-5-5-5-5-5-5-5-5-5-|

e|----------------------------------------|
B|/20-20-20-20-20-20-20-20-20-20-20-20-20-|
G|/19-19-19-19-19-19-19-19-19-19-19-19-19-|
D|/17-17-17-17-17-17-17-17-17-17-17-17-17-| 
A|/17-17-17-17-17-17-17-17-17-17-17-17-17-|
D|/17-17-17-17-17-17-17-17-17-17-17-17-17-|
      
e|----------------------------------------|
B|/15-15-15-15-15-15/20-20-20-20-20-20-20-|
G|/14-14-14-14-14-14/19-19-19-19-19-19-19-|
D|/12-12-12-12-12-12/17-17-17-17-17-17-17-| 
A|/12-12-12-12-12-12/17-17-17-17-17-17-17-|
D|/12-12-12-12-12-12/17-17-17-17-17-17-17-|

e|-------------------------------|
B|-5-5-5-5-5-5/17-17-17-17-17-17-|
G|-4-4-4-4-4-4/16-16-16-16-16-16-|
D|-2-2-2-2-2-2/14-14-14-14-14-14-| x4
A|-2-2-2-2-2-2/14-14-14-14-14-14-|
D|-2-2-2-2-2-2/14-14-14-14-14-14-|     

5:03
e|------------------|
B|-8----------------|
G|-7----------------|
D|-5----------------|
A|-5----------------|
D|-5----------------|

e|------------------------------|
B|---8-------------8------------|
G|-----7-----------7------------|
D|-------5---------5------------| x2
A|-----------------5------------|
D|-----------------5------------|

5:19
e|--------------------------------------------------------------------------|
B|--------------------------------------------------------------------------|
G|--------------------------------------------------------------------------|
D|-/9-----9---9-9---9-9-9\7-----7---7-7---7-7-7/10----10---10-10---10-10-10-|
A|--------------------------------------------------------------------------|
D|--------------------------------------------------------------------------|

e|----------------------------|
B|----------------------------|
G|----------------------------|
D|-10/9---9---9b10---10-10-10-|
A|----------------------------|
D|----------------------------|

e|--------------------------------------------------------------------------|
B|--------------------------------------------------------------------------|
G|--------------------------------------------------------------------------|
D|br9~----9---9-9---9-9-9\7-----7---7-7---7-7-7\5----5---5-5---5-5-5\4------|
A|--------------------------------------------------------------------------|
D|--------------------------------------------------------------------------|

5:36
e|----------------------------------------------------------|
B|---------------------------------------12\------------12\-|
G|---------------------------------------11\------------11\-|
D|-2----2-0----0-5----5-0----0-9----9--9-9-\-/9----9--9-9-\-| x4
A|-2----2-0----0-5----5-0----0-9----9--9-9-\-/9----9--9-9-\-|
D|-2----2-0----0-5----5-0----0-9----9--9-9-\-/9----9--9-9-\-|

e|---------------------------------|
B|-----------12\--------------12b--|
G|-----------11\--------------11b--|
D|-9----9--9-9---/9-9-9-9-9-9-9----|
A|-9----9--9-9---/9-9-9-9-9-9-9----|
D|-9----9--9-9---/9-9-9-9-9-9-9----|

6:12
e|-----------------|       e|-----------------|
B|-----------------|       B|-----------------|
G|-4----4----4b----|       G|-4---------------|
D|-6----6----6b----| x11   D|-6---------------|
A|-5----5----5b----|       A|-5---------------|
D|-----------------|       D|-----------------|


the end. 

>:)


| *  pinch harmonic
| br bend release
| pb pre-bend
| /  slide up
| \  slide down
| h  hammer-on
| p  pull-off
| ~  vibrato
| +  harmonic
| x  Mute note
Tap to rate this tab
 
# A B C D E F G H I J K L M N O P Q R S T U V W X Y Z