Song name
# A B C D E F G H I J K L M N O P Q R S T U V W X Y Z

Tool - Pushit tab

Pushit By Tool

Tabbed by: Radiohead293

0:17
e|--------------------------|        e|--------|
B|--------------------------|        B|--------|
G|--------------------------|        G|--------|
D|-10p9---7-----5b----7b----| x10    D|-10-9---|
A|------0---0-0---0-0---0-0-|        A|-10-9---|
D|--------------------------|        D|-10-9---|

0:50
e|--------------------------|
B|--------------------------|
G|--------------------------|
D|-7-----5b----7b----10p9---| x4
A|---0-0---0-0---0-0------0-|
D|--------------------------|

1:02
e|----------------------------------------------------|
B|----------------------------------------------------|
G|----------------------------------------------------|
D|-7-------------------------7-----5-----7-----10p9---|
A|-0---------------------------0-0---0-0---0-0------0-|
D|----------------------------------------------------|
                                                        }x2
e|----------------------------------------------------|
B|----------------------------------------------------|
G|-9--------------------------------------------------|
D|-7------------------10p9---7-----5-----7-----10p9---|
A|-0-----------------------0---0-0---0-0---0-0------0-|
D|----------------------------------------------------|

1:25
e|--------------------------|
B|--------------------------|
G|-9-----7-----9-----12\11--|
D|-7-----5-----7-----10\9---| x4
A|---0-0---0-0---0-0------0-|
D|--------------------------|

e|--------------------------|
B|--------------------------|
G|-9-----7-----9-----12\11--|
D|-7-----5-----7-----10\9---| x4
A|---0-0---0-0---0-0------0-|
D|--------------------------|
     m m   m m   m m      m 

1:49
e|------------------------|
B|------------------------|
G|------------------------|
D|-7---0-5---0-7---10p9-0-| x4
A|-7---0-5---0-7---10p9-0-|
D|-7---0-5---0-7---10p9-0-|

2:00
e|--------------------------|
B|--------------------------|
G|--------------------------|
D|-7-----5b----7b----10p9---| x4
A|---0-0---0-0---0-0------0-|
D|--------------------------|

2:11
e|---------------------------------------------------------------|
B|---------------------------------------------------------------|
G|---------------------------------------------------------------|
D|-7-------------------------------------------------------------|
A|-0-------------------------------------------------------------|
D|---------------------------------------------------------------|

2:34
e|--------------------------|
B|--------------------------|
G|-9-----7-----9-----12\11--|
D|-7-----5-----7-----10\9---| x4
A|---0-0---0-0---0-0------0-|
D|--------------------------|
     m m   m m   m m      m 

2:45
e|------------------------|
B|------------------------|
G|------------------------|
D|-7---0-5---0-7---10p9-0-| x4
A|-7---0-5---0-7---10p9-0-|
D|-7---0-5---0-7---10p9-0-|

2:57
e|--------------------------|
B|--------------------------|
G|--------------------------|
D|-7-----5b----7b----10p9---| x10
A|---0-0---0-0---0-0------0-|
D|--------------------------|

3:25
e|--------------------------------------------------|
B|--------------------------------------------------|
G|--------------------------------------------------|
D|-7-----5-----7-----10p9---7-----12-----14-----12\-| 
A|-----0-----0-----0------0-----0------0------0-----|
D|--------------------------------------------------|

3:30
e|---------------------------------------------------------|
B|---------------------------------------------------------|
G|---------------------------------------------------------|
D|-7-7777-7-7777-7-7777-7-7777-6-6666-6-6666-6-6666-6-6666-|
A|-7-7777-7-7777-7-7777-7-7777-6-6666-6-6666-6-6666-6-6666-|
D|-7-7777-7-7777-7-7777-7-7777-6-6666-6-6666-6-6666-6-6666-|

e|---------------------------------------------------------|
B|---------------------------------------------------------|
G|---------------------------------------------------------|
D|-3-3333-3-3333-3-3333-3-3333-5-5555-5-5555-5-5555-5-5555-|
A|-3-3333-3-3333-3-3333-3-3333-5-5555-5-5555-5-5555-5-5555-|
D|-3-3333-3-3333-3-3333-3-3333-5-5555-5-5555-5-5555-5-5555-|

e|---------------------------------------------------------|
B|---------------------------------------------------------|
G|---------------------------------------------------------|
D|-7-7777-7-7777-7-7777-7-7777-6-6666-6-6666-6-6666-6-6666-|
A|-7-7777-7-7777-7-7777-7-7777-6-6666-6-6666-6-6666-6-6666-|
D|-7-7777-7-7777-7-7777-7-7777-6-6666-6-6666-6-6666-6-6666-|

e|---------------------------------------------------------|
B|---------------------------------------------------------|
G|---------------------------------------------------------|
D|-3-xxxx-3-xxxx-3-xxxx-3-xxxx-5-xxxx-5-xxxx-5-xxxx-5-xxxx-|
A|-3-xxxx-3-xxxx-3-xxxx-3-xxxx-5-xxxx-5-xxxx-5-xxxx-5-xxxx-|
D|-3-xxxx-3-xxxx-3-xxxx-3-xxxx-5-xxxx-5-xxxx-5-xxxx-5-xxxx-|

3:52
e|--------|
B|--------|
G|--------|
D|-10-9-7-|
A|-10-9-7-|
D|-10-9-7-|

e|---------------|
B|---------------|
G|---------------|
D|-3-0--0-3/10-0-| x8
A|-3-0--0-3/10-0-|
D|-3-0--0-3/10-0-|

4:04
e|----------------------------------|
B|----------------------------------|
G|----------------------------------|
D|-7~--7---77~--7---77~--7---77-7-7-| x4
A|-0---0---00---0---00---0---00-0-0-|
D|----------------------------------|

4:16           
e|-----------------|
B|-----------------|
G|-----------------|
D|-0---------------| x5
A|-0---------------|
D|-0---------------|
               volume down

4:52
e|----------------------|      e|---------|
B|----------------------|      B|---------|
G|-9----------9/11-9/11-|      G|-9---\---|
D|-7----------7/9--7/9--| x3   D|-7---\---|
A|-0--------------------|      A|---------|
D|----------------------|      D|---------|
  this is a bass riff

5:09
e|---------12---------------------------------------------------------|
B|----15----------15-----14-----12----------------12----12------------|
G|-14----------------------------------12------------12----14---------|
D|--------------------------------------------------------------------|
A|--------------------------------------------------------------------|
D|--------------------------------------------------------------------|

5:18 very softly
e|----------------------------------------|
B|-5-----5h6---6---6h8---8---8/10---------|
G|----------------------------------------|
D|----------------------------------10----|
A|----------------------------------------|
D|----------------------------------------|

5:26
e|--------------------------|
B|----15--------------------|
G|-14-----------------------|
D|--------------------------|
A|--------------------------|
D|--------------------------|

5:35 very softly
e|----------------------------------------|
B|-5-----5h6---6---6h8---8---8/10---------|
G|----------------------------------------|
D|----------------------------------10----|
A|----------------------------------------|
D|----------------------------------------|

5:45
e|---------------------------------------------------------------------|
B|----15---------------------------------------------------------------|
G|-14----------------15-14---14-12---12-11---11-----------------12-----|
D|----------------------------------------------14---14-12---12--------|
A|---------------------------------------------------------------------|
D|---------------------------------------------------------------------|

e|---------------------------------------------------------------------|
B|---------------------------------------------------------------------|
G|-14-12-------------------------------------------12-----14-----------|
D|-------12\11-----------------------11-----14-------------------------|
A|-------------12-------------12---0------0------0------0--------------|
D|---------------------------------------------------------------------|

6:03
e|--------------------------|
B|----15--------------------|
G|-14-----------------------|
D|--------------------------|
A|--------------------------|
D|--------------------------|

6:06
e|----------------------------------------|
B|-5-----5h6---6---6h8---8---8/10---------|
G|----------------------------------------|
D|----------------------------------10----| x2
A|----------------------------------------|
D|----------------------------------------|

6:23
e|----------------------------------------|
B|----------------------------------------|
G|----------------------------------------|
D|-7-7-7-7-7-7-7-7-7-7-7-7----------------|
A|-7-7-7-7-7-7-7-7-7-7-7-7----------------|
D|-7-7-7-7-7-7-7-7-7-7-7-7----------------|
   m m m m m m m m m m m 

6:31
e|--------------------------------------------------------|
B|-10-10\8-8---8b-br---b-br---8b-br---b-br---8b-br---b-br-|
G|-9--9-\7-7---7b-br---b-br---7b-br---b-br---7b-br---b-br-|
D|-7--7-\5-5---5b-br---b-br---5b-br---b-br---5b-br---b-br-|
A|-7--7-\5-5---5b-br---b-br---5b-br---b-br---5b-br---b-br-|
D|-7--7-\5-5---5b-br---b-br---5b-br---b-br---5b-br---b-br-|

e|---------------------------|-----------|-----------|----------|-----------|
B|-8-8-----------------------|-----------|-----------|----------|-----------|
G|-7-7-----------------------|-----------|-----------|----------|-----------|
D|-5-5-----------------------|-----------|-----------|----------|-----------|
A|-5-5-----------------------|-----------|-----------|----------|-----------|
D|-5-5-/7-777777777777777777-|-/12121212-|-/14141414-|-15151515-|-/17171717b|
          tremolo picking

6:56
e|-------------------------------------------------|
B|-------------------------------------------------|
G|-6---7-7---6-6---1111--6-6---7-7---6-6---1111----|
D|-7---7-7---7-7---1212--7-7---7-7---7-7---1212--0-|
A|-0---0-0---0-0---0-0---0-0---0-0---0-0---0-0---0-|
D|-----------------------------------------------0-|

e|-------------------------------------------------|
B|------------------------8-----------------10-8---|
G|------------------------7----------------------7-|
D|-5----------------------5------------------------|
A|-5-----------------------------------------------|
D|-5-----------------------------------------------|

e|--------------------|----------------------|---------------------|
B|--------------------|----------------------|---------------------|
G|--------------------|----------------------|---------------------|
D|-777777777777777777-|-7h8p7777777777777777-|-7h8p7-10p7-8p7-10p7-|
A|--------------------|----------------------|---------------------|
D|--------------------|----------------------|---------------------|
   tremolo picking

7:24
e|--------------------------------------------------------------|
B|--------------------------------------------------------------|
G|--------------------------------------------------------------|
D|-/14-----14---/15-17-15-15-17-15/17-17-----17---\12---12---12-| 
A|-/12-----12---/15-15-15-15-15-15/17-17-----17---\12---12---12-|
D|------------------------------15/17-17-----17---\12---12---12-|

e|----------------------------------------------------|
B|----------------------------------------------------|
G|----------------------------------------------------|
D|-/14-----14---/15-17-15-15-17-15/17-17-----17---\12-| 
A|-/12-----12---/15-15-15-15-15-15/17-17-----17---\12-|
D|------------------------------15/17-17-----17---\12-|

7:36
e|-------------------------|     e|-------------------------|
B|-------------------------|     B|-------------------------|
G|-------------------------|     G|-------------------------|
D|-5-5h7-7~----7-----7-----| x3  D|-5-5h7-*7b---------------|
A|-------------------------|     A|-------------------------|
D|-------------------------|     D|-------------------------|

7:48
e|----------------------------------------------------|
B|-------5-5---8-8-----------5------------------------|
G|-------------------7-7p6-6---6----------------------|
D|-7-7---------------------------7--------------5-5h7-| x3
A|-------------------------------0--------------------|
D|----------------------------------------------------|

e|-----------------------------------------------|
B|-----------------------------------------------|
G|-----------------------------------------------|
D|-7-7-----7-----5-----------2-------------------|
A|-------7-----5-----5-5\4-4---4-0---------------|
D|-----------------------------------------------|

8:18
e|-------------------------------|
B|-------------------------------|
G|-2-2-2-2-2-2-2-2-2-2-2-2-2-2-2-|
D|-2-2-2-2-2-2-2-2-2-2-2-2-2-2-2-|
A|-0-0-0-0-0-0-0-0-0-0-0-0-0-0-0-|
D|-------------------------------|
   m m m m m m m m m m m m 

e|-------------------------------|
B|--------------------3----------|
G|--------------------2----------|
D|-7-7---2-2---5-5--0-0----------| x3
A|-7-7---2-2---5-5--0-0----------|
D|-7-7---2-2---5-5--0-0----------|

8:54
e|-------------------------------|
B|--------------------3----------|
G|--------------------2----------|
D|-7-7---2-2---5-5--0-0----------| 
A|-7-7---2-2---5-5--0-0----------|
D|-7-7---2-2---5-5--0-0----------|

e|-----------------------------------|
B|-----------------------------------|
G|-----------------------------------|
D|-----------------------------------|
A|-----------------------------------|
D|-0---0-0-0---0-0---0-0-0---0-0---0-|
   m   m m m   m m   m m m   m m   m 

e|--------------------------|
B|--------------------------|
G|--------------------------|
D|-7-7---2-2---/10-10b------|
A|-7-7---2-2---/10-10b------|
D|-7-7---2-2---/10-10b------|

9:06
e|---------------|
B|---------------|
G|---------------|
D|-3-0--0-3/10-0-| x4
A|-3-0--0-3/10-0-|
D|-3-0--0-3/10-0-|

9:12
e|----------------------------------|
B|----------------------------------|
G|----------------------------------|
D|-7~--7---77~--7---77~--7---77-7-7-| x6
A|-0---0---00---0---00---0---00-0-0-|
D|----------------------------------|

e|---------------------------------------------------|
B|---------------------------------------------------|
G|---------------------------------------------------|
D|-12-----12---12-12-----12---10-10---10---8-8-10/12-| x4
A|-12-----12---12-12-----12---10-10---10---8-8-10/12-|
D|-12-----12---12-12-----12---10-10---10---8-8-10/12-|

9:42
e|--------------------------|------------------------------------|
B|--------------------------|------------------------------------|
G|--------------------------|------------------------------------|
D|-7-----0-----10-----0-----|-7-----0-----10-----0-----------8---|
A|-7-----0-----10-----0-----|-7-----0-----10-----0-----------8---|
D|-7-----0-----10-----0-----|-7-----0-----10-----0-----------8---|


>:)



| /  slide up
| \  slide down
| h  hammer-on
| p  pull-off
| ~  vibrato
| +  harmonic
| x  Mute note
Tap to rate this tab
# A B C D E F G H I J K L M N O P Q R S T U V W X Y Z