Song name
# A B C D E F G H I J K L M N O P Q R S T U V W X Y Z

Tool - Ticks And Leeches tab

Ticks & Leeches by Tool

Tabbed by: Radiohead293

0:21 distortion + delay
e|--------------------------------------------------------------------------|
B|--------------------------------------------------------------------------|
G|--------------------------------------------------------------------------|
D|-0--------------------------------------------------------------x\\\\\\\--|
A|-0------------------------------------------------------------------------|
D|-0------------------------------------------------------------------------|
 volume off          swell volume up

0:33 
e|--------------------------------------------------------------------------|
B|--------------------------------------------------------------------15/17-|
G|-----------------------------------------------------------------14-------|
D|-14----12-14------14----14-12------14----12*14b-----14----14-12-----------|
A|--------------------------------------------------------------------------|
D|--------------------------------------------------------------------------|

0:43
e|--------------------------------------------------------------------------|
B|-17--17171717171715-17--171717171717171715-17--17171717171717-15--15151515|
G|-16--16161616161614-16--161616161616161614-16--16161616161616-14--14141414|
D|-14--14141414141412-14--141414141414141412-14--14141414141414-12--12121212|
A|--------------------------------------------------------------------------|
D|--------------------------------------------------------------------------|
   x2

0:55
e|-----------------------------|
B|-----------------------------|
G|-----------------------------|
D|-----------------------------| x4
A|---------0h2-----------------|
D|-2---0h2-----3-2---0h2p0-2h3-|

e|-----------------------------|
B|-----------------------------|
G|-----------------------------|
D|-------------------------2-3-| 
A|---------0h2-------------2-3-|
D|-2---0h2-----3-2---0h2p0-2-3-|

1:09
e|--------------------------------------------------------------|
B|--------------------------------------------------------------|
G|--------------------------------------------------------------|
D|-2---------------------------/14-------------------------p0---|
A|-2---------------------------/14-------------------------p0---|
D|-2---------------------------/14-------------------------p0---|

1:20
e|--------------------------------------------------------------|
B|--------------------------------------------------------------|
G|--------------------------------------------------------------|
D|--------------------------------------------------------------| x3
A|--------------------------------------------------------------|
D|--------141414--------141414---------141414--------121212-----|
          m m m         m m m          m m m         m m m

e|--------------------------------------------------------------|
B|--------------------------------------------------------------|
G|--------------------------------------------------------------|
D|--------------------------------------------------------*12---|
A|--------------------------------------------------------------|
D|--------141414--------141414---------141414-------*12---------|
          m m m         m m m          m m m         

1:40
e|-----------------------------|
B|-----------------------------|
G|-----------------------------|
D|-----------------------------| 
A|---------0h2-----------------|
D|-2---0h2-----3-2---0h2p0-2h3-|
                                    
e|---------------------------------|
B|---------------------------------|
G|---------------------------------|
D|---------------------------------| 
A|---------0h2-------------3---0---|
D|-2---0h2-----3-2---0h2p0---5-----|

e|-----------------------------|
B|-----------------------------|
G|-----------------------------|
D|-----------------------------| 
A|---------0h2-----------------|
D|-2---0h2-----3-2---0h2p0-2h3-|

e|-------------------------------------|
B|-------------------------------------|
G|-------------------------------------|
D|-------------------10-10-10-10-0-0---| 
A|---------0h2-------10-10-10-10-0-0---|
D|-2---0h2-----3-2---10-10-10-10-0-0---|

1:52
e|------------------------------------|
B|------------------------------------|
G|------------------------------------|
D|-2---x-x-10---x-2---x-9---x-9-5-4-0-| x3
A|-2---x-x-10---x-2---x-9---x-9-5-4-0-|
D|-2---x-x-10---x-2---x-9---x-9-5-4-0-|
                              m m m m 

e|------------------------------------|
B|------------------------------------|
G|------------------------------------|
D|-2---x-x-10---x-2---x-9-------------|
A|-2---x-x-10---x-2---x-9-------------|
D|-2---x-x-10---x-2---x-9---x-9-5-4-0-|
                              
2:04
e|-----------------------------|
B|-----------------------------|
G|-----------------------------|
D|-----2p0-------3---2-----2p0-|
A|---------3p2p0---------------|
D|-2---------------------------|
                                }x2
e|-----------------------------|
B|-----------------------------|
G|-----------------------------|
D|-----2p0-------3---2---0-----|
A|---------3p2p0---------------|
D|-2---------------------------|

2:14
e|-----------------------------|-12----------------------------|
B|-----------------------------|--------12---------------------|
G|-----------------------------|-------------------------------|
D|-----------------------------|--------------------x\\\\\\\\\-|
A|-----------------------------|-------------------------------|
D|/12~-------------------------|-------------------------------|

2:35
e|---------------------------------|
B|---------------------------------|
G|---------------------------------|
D|-2---xxxx0-2-x-2-x-2-2-0-2-0-2-3-| x3
A|-2---xxxx0-2-x-2-x-2-2-0-2-0-2-3-|
D|-2---xxxx0-2-x-2-x-2-2-0-2-0-2-3-|

e|---------------------------------|
B|---------------------------------|
G|---------------------------------|
D|-2---xxxx0-2-x-2-----------------| 
A|-2---xxxx0-2-x-2---3-----3---3h5-|
D|-2---xxxx0-2-x-2-----5-0---5-----|

2:46
e|------------------------------------|
B|------------------------------------|
G|------------------------------------|
D|-2---x-x-10---x-2---x-9---x-9-5-4-0-| x3
A|-2---x-x-10---x-2---x-9---x-9-5-4-0-|
D|-2---x-x-10---x-2---x-9---x-9-5-4-0-|
                              m m m m 

e|------------------------------------|
B|------------------------------------|
G|------------------------------------|
D|-2---x-x-10---x-2---x-9-------------|
A|-2---x-x-10---x-2---x-9-------------|
D|-2---x-x-10---x-2---x-9---x-9-5-4-0-|

3:00
e|-------------------------------------------------------------|
B|-------------------------------------------------------------|
G|---------------------------------------------------------0---|
D|-0h2-2---2---0-5---0-3---0h1-0h2-2---2---0-5---0-3---0h2-0---| x2
A|-0h2-2---2---0-5---0-3---0h1-0h2-2---2---0-5---0-3---0h2-----|
D|-0h2-2---2---0-5---0-3---0h1-0h2-2---2---0-5---0-3---0h2-----|
   m   m   m   m m   m m   m   m   m   m   m m   m m 

e|-------------------------------------------------------------|
B|-------------------------------------------------------------|
G|---------------------------------------------------------0---|
D|-0h2-2---2---0-5---0-3---0h1-0h2-2---2---0-5---0-3---0h2-0---| x2
A|-0h2-2---2---0-5---0-3---0h1-0h2-2---2---0-5---0-3---0h2-----|
D|-0h2-2---2---0-5---0-3---0h1-0h2-2---2---0-5---0-3---0h2-----|
   
3:25 clean or low volume
e|---------------------------------------------------------------|
B|---------------------------------------------------------------|
G|-------------------------------------------------------2---0---|
D|-4-----2-----------2---------2---4-----2----/5---0-----0---0---| x5
A|-2-----2-----2-----2-----2---2---2-----2----/5---0-------------|
D|-2---2-----2-----2-----2---------2---2------/5---0-------------|

e|---------------------------------------------------------------|
B|---------------------------------------------------------------|
G|-------------------------------------------------------2---0---|
D|-4-----2-----------2---------2---4-----2----/5---0-----0---0---| 
A|-2-----2-----2-----2---------2---2-----2----/5---0-------------|
D|-2---2-----2-----2-------0h2-----2---2------/5---0-------------|
                                                                  }x4
e|---------------------------------------------------------------|
B|---------------------------------------------------------------|
G|-------------------------------------------------------2---0---|
D|-4-----2-----------2---------2---4-----2----/5---0-----0---0---|
A|-2-----2-----2-----2-----2---2---2-----2----/5---0-------------|
D|-2---2-----2-----2-----2---------2---2------/5---0-------------|

e|---------------------------------------------------------------|
B|---------------------------------------------------------------|
G|-------------------------------------------------------2---0---|
D|-4-----2-----------2---------2---4-----2----/5---0-----0---0---| 
A|-2-----2-----2-----2---------2---2-----2----/5---0-------------|
D|-2---2-----2-----2-------0h2-----2---2------/5---0-------------|
                                                                  
e|---------------------------------------------------------------|
B|---------------------------------------------------------------|
G|---------------------------------------------------------------|
D|-4-----2-----------2---------2---4-----2----/5---0-------------|
A|-2-----2-----2-----2-----2---2---2-----2----/5---0-------------|
D|-2---2-----2-----2-----2---------2---2------/5---0-------------|

5:55 distortion
e|--------------------------------------------------------------------|
B|--------------------------------------------------------------------|
G|--------------------------------------------------------------------|
D|-16---16-16-16-16-14---14-14-14-14-14---14-14-14---14-14-14-14-14---|
A|-14---14-14-14-14-14---14-14-14-14-14---14-14-14---14-14-14-14-14---|
D|-14---14-14-14-14-14---14-14-14-14-14---14-14-14---14-14-14-14-14---|

e|-------------------------|
B|-------------------------|
G|-------------------------|
D|-14-14-14-14-14-14-14-14-|
A|-14-14-14-14-14-14-14-14-|
D|-14-14-14-14-14-14-14-14-|                                            \
                                                                         }x2
e|-------------------------------------------------------------------|  /
B|-------------------------------------------------------------------|
G|-------------------------------------------------------------------|
D|-16---16-16-16-16-14---14-14-14-14-17---17-17-17---12---12-12-12---|
A|-14---14-14-14-14-14---14-14-14-14-17---17-17-17---12---12-12-12---|
D|-14---14-14-14-14-14---14-14-14-14-17---17-17-17---12---12-12-12---|

e|-------------------------|
B|-------------------------|
G|-------------------------|
D|-12-12-12-12-12-12-12-12-|
A|-12-12-12-12-12-12-12-12-|
D|-12-12-12-12-12-12-12-12-|

6:13
e|-------------------------------------------------------------------|
B|-------------------------------------------------------------------|
G|-------------------------------------------------------------------|
D|-16---16-16-16-16-14---14-14-14-14-12h14-14---14---12h14-14---14---|
A|-14---14-14-14-14-14---14-14-14-14-12h14-14---14---12h14-14---14---|
D|-14---14-14-14-14-14---14-14-14-14-12h14-14---14---12h14-14---14---|

e|-------------------------|
B|-------------------------|
G|-------------------------|
D|-12h14-14-14-14-14-14-14-|
A|-12h14-14-14-14-14-14-14-|
D|-12h14-14-14-14-14-14-14-|                                           \
                                                                        }x2
e|-------------------------------------------------------------------| /
B|-------------------------------------------------------------------|
G|-------------------------------------------------------------------|
D|-16---16-16-16-16-14---14-14-14-14-17---17-17-17---12---12-12-12---|
A|-14---14-14-14-14-14---14-14-14-14-17---17-17-17---12---12-12-12---|
D|-14---14-14-14-14-14---14-14-14-14-17---17-17-17---12---12-12-12---|

e|-------------------------|
B|-------------------------|
G|-------------------------|
D|-12-12-12-12-12-12-12-12-|
A|-12-12-12-12-12-12-12-12-|
D|-12-12-12-12-12-12-12-12-|

6:31
e|--------------------------------------------------------------------|
B|-17---17-17-17-17-17---17-17-17-17-17---17-17-17---17-17-17-17-17---|
G|-16---16-16-16-16-16---16-16-16-16-16---16-16-16---16-16-16-16-16---|
D|-16---16-16-16-16-14---14-14-14-14-14---14-14-14---14-14-14-14-14---|
A|-14---14-14-14-14-14---14-14-14-14-14---14-14-14---14-14-14-14-14---|
D|-14---14-14-14-14-14---14-14-14-14-14---14-14-14---14-14-14-14-14---|

e|-------------------------|
B|-17-17-17-17-17-17-17-17-|
G|-16-16-16-16-16-16-16-16-|
D|-14-14-14-14-14-14-14-14-|
A|-14-14-14-14-14-14-14-14-|
D|-14-14-14-14-14-14-14-14-|                                            
                                                                       
e|-------------------------------------------------------------------|  
B|-17---17-17-17-17-17---17-17-17-17-21---21-21-21---15---15-15-15---|
G|-16---16-16-16-16-16---16-16-16-16-19---19-19-19---14---14-14-14---|
D|-16---16-16-16-16-14---14-14-14-14-17---17-17-17---12---12-12-12---|
A|-14---14-14-14-14-14---14-14-14-14-17---17-17-17---12---12-12-12---|
D|-14---14-14-14-14-14---14-14-14-14-17---17-17-17---12---12-12-12---|

e|-------------------------|
B|-15-15-15-15-15-15-15-15-|
G|-14-14-14-14-14-14-14-14-|
D|-12-12-12-12-12-12-12-12-|
A|-12-12-12-12-12-12-12-12-|
D|-12-12-12-12-12-12-12-12-|

6:40
e|------------------------------------------------------------------|
B|------------------------------------------------------------------|
G|------------------------------------------------------------------|
D|------------------------------------------------------------------|
A|-16---16---16---14---14---14---14---14---14---14---14---14---14---|
D|-14---14---14---14---14---14---14---14---14---14---14---14---14---|
e|-14---14---14---14---14---14---14---14---14---14---14---14---14---|

B|---------------------|
G|---------------------|
D|-14---14---14---14---|
A|-14---14---14---14---|
D|-14---14---14---14---|

e|---------------------------------------------|
B|---------------------------------------------|
G|---------------------------------------------|
D|-16--------14--------17--------12---------2/-|
A|-14--------14--------17--------12------------|
D|-14--------14--------17--------12------------|

6:48
e|--------------------------------------------------------------------------|
B|--------------------------------------------------------------------15/17-|
G|-----------------------------------------------------------------14-------|
D|-14----12-14------14----14-12------14----12*14b-----14----14-12-----------|
A|--------------------------------------------------------------------------|
D|--------------------------------------------------------------------------|

7:00
e|--------------------------------------------------------------------------|
B|-17--17171717171715-17--171717171717171715-17--17171717171717-15--15151515|
G|-16--16161616161614-16--161616161616161614-16--16161616161616-14--14141414|
D|-14--14141414141412-14--141414141414141412-14--14141414141414-12--12121212|
A|--------------------------------------------------------------------------|
D|--------------------------------------------------------------------------|
   
e|--------------------------------------------------------------------------|
B|-17--17171717171715-17--171717171717171715-17--17171717171715-------------|
G|-16--16161616161614-16--161616161616161614-16--16161616161614-------------|
D|-14--14141414141412-14--141414141414141412-14--14141414141412-------------|
A|-----------------------------------------------------------12-------------|
D|-----------------------------------------------------------12-------------|

7:20
e|--------------------------------------------------------------------------|
B|--------------------------------------------------------------------------|
G|--------------------------------------------------------------------------|
D|-0--------------------------------------------------------------x\\\\\\\\-|
A|-0------------------------------------------------------------------------|
D|-0------------------------------------------------------------------------|
                       feedback

7:32
e|------------------------------------|
B|------------------------------------|
G|------------------------------------|
D|-2-----//10---\\2---//9-----9-5-4-0-| x4
A|-2-----//10---\\2---//9-----9-5-4-0-|
D|-2-----//10---\\2---//9-----9-5-4-0-|
 
7:44                             
e|---------------------------------------|
B|---------------------------------------|
G|---------------------------------------|
D|-2---x-x-10---x-2---x-9---x-9---x-10-x-| 
A|-2---x-x-10---x-2---x-9---x-9---x-10-x-|
D|-2---x-x-10---x-2---x-9---x-9---x-10-x-|

e|---------------------------------------|
B|---------------------------------------|
G|---------------------------------------|
D|-2---x-x-10---x-2---x-9---x-10---x-9-x-| 
A|-2---x-x-10---x-2---x-9---x-10---x-9-x-|
D|-2---x-x-10---x-2---x-9---x-10---x-9-x-|

e|---------------------------------------|
B|---------------------------------------|
G|---------------------------------------|
D|-2---x-x-10---x-2---x-9---x-9---x-10-x-| 
A|-2---x-x-10---x-2---x-9---x-9---x-10-x-|
D|-2---x-x-10---x-2---x-9---x-9---x-10-x-|

e|---------------------------------------|
B|---------------------------------------|
G|---------------------------------------|
D|-2---x-x-10---x-2---x-9---x-9\5\4p0----| 
A|-2---x-x-10---x-2---x-9---x-9\5\4p0----|
D|-2---x-x-10---x-2---x-9---x-9\5\4p0----|

7:56
e|---------------------------------|
B|---------------------------------|
G|---------------------------------|
D|---------------------------------| x2
A|---------------------------------|
D|-0-0-0-0-0-0-0-0-0-0-0-0-0-0-0-0-|
   m m m m m m m m m m m m m m m m 

7:59
e|-------------------------------------------------------------------------|
B|-------------------------------------------------------------------------|
G|-------------------------------------------------------------------------|
D|-10-------10-----------10-------10-----------10-------10-----------0---2-|
A|-10-------10-----------10-------10-----------10-------10-----------0---2-|
D|-10---0-0-10---0-0-0-0-10---0-0-10---0-0-0-0-10---0-0-10---0-0-0-0-0---2-|
        m m      m m m m      m m      m m m m      m m      m m m m 



>:)


 

| x\ pick scrape
| *  pinch harmonic
| /  slide up
| \  slide down
| h  hammer-on
| p  pull-off
| ~  vibrato
| +  harmonic
| x  Mute note
Tap to rate this tab
# A B C D E F G H I J K L M N O P Q R S T U V W X Y Z