Song name
# A B C D E F G H I J K L M N O P Q R S T U V W X Y Z

Tool - Pot tab

The Pot by Tool

Tabbed by: Radiohead293

0:25
e|---------------------------------|
B|---------------------------------|
G|---------------------------------|
D|-0-------------------------------|
A|-0-------------------------------|
D|-0-------------------------------|
        swell volume up

0:38
e|--------------------------------------------------|
B|--------------------------------------------------|
G|--------------------------------------------------|
D|--------------------------------------------------| x2
A|---------5------------5-------------5---------3---|
D|-0---0-------00---0-------00---0---0----00---3----|
   m   m       mm   m       mm   m   m    mm   

0:47
e|--------------------------------------------------|
B|--------------------------------------------------|
G|--------------------------------------------------|
D|--------------------------------------------------| x3
A|-----15b^17-------------------------17br----------|
D|-0------------------------------------------------|

e|--------------------------------------------------|
B|--------------------------------------------------|
G|--------------------------------------------------|
D|--------------------------------------------------|
A|-----15b^17-------------------------17br---x\\\\\-|
D|-0-----------------------------------------x\\\\\-|

1:41
e|--------------------------------------------------|
B|--------------------------------------------------|
G|--------------------------------------------------|
D|--------------------------------------------------| x2
A|---------5------------5-------------5---------3---|
D|-0---0-------00---0-------00---0---0----00--h3----|
   m   m       mm   m       mm   m   m    mm 

1:50
e|-------------------------------------------------------|
B|-------------------------------------------------------|
G|-------------------------------------------------------|
D|-------------------------------------------------------|
A|---------5------------3-----------------10---------7p0-|
D|-5---5-------33---3-------1010---10---10-----0-5h6-----| 
                                                            
e|--------------------------------------------------|      
B|--------------------------------------------------|     
G|--------------------------------------------------|   
D|--------------------------------------------------| 
A|---------5------------5-------------5---------3---|
D|-0---0-------00---0-------00---0---0----00--h3----|
   m   m       mm   m       mm   m   m    mm 

e|-------------------------------------------------------|
B|-------------------------------------------------------|
G|-------------------------------------------------------|
D|-------------------------------------------------------|
A|---------5------------3-----------------10-------------|
D|-5---5-------33---3-------1010---10---10-----1-1---1-1-|

e|--------------------------------------------------|      
B|--------------------------------------------------|     
G|--------------------------------------------------|   
D|--------------------------------------------------| x2
A|---------5------------5-------------5---------3---|
D|-0---0-------00---0-------00---0---0----00--h3----|
   m   m       mm   m       mm   m   m    mm 
 
2:12
e|--------------------------------------------------|
B|--------------------------------------------------|
G|--------------------------------------------------|
D|--------------------------------------------------| x2
A|-----15b^17-------------------------17br----------|
D|-0------------------------------------------------|

2:22
e|--------------------------------------------------|
B|--------------------------------------------------|
G|--------------------------------------------------|
D|--------------------------------------------------| x4
A|---------5------------5-------------5---------3---|
D|-0---0-------00---0-------00---0---0----00--h3----|
   m   m       mm   m       mm   m   m    mm

2:40
e|--------------------|-----------------------|---------------------|
B|--------------------|-----------------------|---------------------|
G|--------------------|-----------------------|---------------------|
D|/10b----------------|-0---------------------|-10b-----------------|
A|/10b----------------|-0--------------x\\\\\-|-10b-----------------|
D|/10b----------------|-0--------------x\\\\\-|-10b-----------------|

2:52
e|--------------------------------------------------|
B|--------------------------------------------------|
G|--------------------------------------------------|
D|--------------------------------------------------| 
A|---------5------------5-------------5---------3---|
D|-0---0-------00---0-------00---0---0----00--h3----|
   m   m       mm   m       mm   m   m    mm

e|-------------------------------------------------------|
B|-------------------------------------------------------|
G|-------------------------------------------------------|
D|-------------------------------------------------------|
A|---------5------------3-----------------10---------7p0-|
D|-5---5-------33---3-------1010---10---10-----0-5h6-----|

e|--------------------------------------------------|
B|--------------------------------------------------|
G|--------------------------------------------------|
D|--------------------------------------------------| 
A|---------5------------5-------------5---------3---|
D|-0---0-------00---0-------00---0---0----00--h3----|
   m   m       mm   m       mm   m   m    mm

e|-------------------------------------------------------|
B|-------------------------------------------------------|
G|-------------------------------------------------------|
D|-------------------------------------------------------|
A|---------5------------3-----------------10---1-1---1-1-|
D|-5---5-------33---3-------1010---10---10-----1-1---1-1-|

3:11               
e|-------------------------------------------------------------------------|
B|-------------------------------------------------------------------------|
G|-------------------------------------------------------------------------|
D|-------------------------------------------------------------------------|
A|-0-0-xx----5p0-----2-2-xx----5p0-----3-3-xx----5p0-----5-5-xx----5p0-----|
D|-0-0-xx5h7-----5p0-2-2-xx5h7-----5p0-3-3-xx5h7-----5p0-5-5-xx5h7-----5p0-|
                                                                           x2

3:25
e|--------------------------------------------------------------|
B|--------------------------------------------------------------|
G|--------------------------------------------------------------|
D|--------0-0-----------0-0-----------0-0-----------------------|
A|-0-0----0-0----2-2----0-0----3-3----0-0----5-5--------5p0-----|
D|-0-0-xx-0-0-xx-2-2-xx-0-0-xx-3-3-xx-0-0-xx-5-5-xx-5h7-----5p0-|

e|-------------------------------------------------------------|
B|-------------------------------------------------------------|
G|-------------------------------------------------------------|
D|--------0-0-----------0-0-----------0-0----5-5---8-8---3-3---|
A|-0-0----0-0----2-2----0-0----3-3----0-0----5-5---8-8---3-3---|
D|-0-0-xx-0-0-xx-2-2-xx-0-0-xx-3-3-xx-0-0-xx-5-5---8-8---3-3---|

3:39
e|------------------------------------------------|
B|------------------------------------------------|
G|------------------------------------------------|
D|------------------------------------------------| x4
A|-----------------12---------------------12------|
D|-0---0--00h10h12-----12--0---0--0-10h12-----12--|
   m-->

3:52
e|------------------------------------------------|
B|------------------------------------------------|
G|------------------------------------------------|
D|------------------------------------------------| 
A|-----------------12----------------------15-----|
D|-0---0--00h10h12-----12--0---0--00h12h15-----15-|
   m-->                                             \
                                                     }x2
e|------------------------------------------------| /
B|------------------------------------------------|
G|------------------------------------------------|
D|------------------------------------------------| 
A|-----------------12---------------------10------|
D|-0---0--00h10h12-----12--0---0--00h8h10-----10--|
   m-->

4:04
e|------------------------------------------------|
B|------------------------------------------------|
G|------------------------------------------------|
D|------------------------------------------------| x2
A|-----------------12---------------------12------|
D|-00--0--00h10h12-----12--00--0--0-10h12-----12--|
   m-->

4:11
e|-----------------------------------------|
B|-----------------------------------------|
G|-----------------------------------------|
D|-----------------------------------------| x2
A|-----------------12---------8------7-----|
D|-0---0--00h10h12-----12--8-----55-----8--|

e|-----------------------------------------|
B|-----------------------------------------|
G|-----------------------------------------|
D|/10-----0--------------------------------| x2
A|/10-----0-----5-------------8------5-----|
D|/10-----0--------7--0--5/8-----55-----5--|

4:25
e|------------------------------------------------------------------------|
B|------------------------------------------------------------------------|
G|------------------------------------------------------------------------|
D|--------------------------------------------------------------------3---|
A|--------------------------------------------------------------------^---|
D|-0---10p0-0-12p0-0-10p0-0---0---0---0-10p0-0-13---0-10p0-0-13---0-10p00-|
   m-->                                                                   x5

4:46
e|----------------------------------------------|
B|----------------------------------------------|
G|----------------------------------------------|
D|----------------------------------------------|
A|------------------------------------------3h5-|
D|-0--00--00--00--00--000--00--00--0000-3h5-----|
   m  mm  mm  mm  mm  mmm  mm  mm  mmmm

e|------------------------------------------------|
B|------------------------------------------------|
G|------------------------------------------------|
D|------------------------------------------------|
A|----------------*3h5------------------------3h5-|
D|-0--00--00--0000---------0--00--00--0000-3h5----|
   m  mm  mm  mmmm         m  mm  mm  mmmm

e|--------------------------------------------------------------------------|
B|--------------------------------------------------------------------------|
G|--------------------------------------------------------------------------|
D|---------------------------------------------0h3h5-------------------0----|
A|-----------------3h5---------3h5-------0h3h5-------0h3h5-------0h3h5-0----|
D|-0--00--00--0000---------3h5-----0h3h5-------------------0h3h5-------0----|
   m  mm  mm  mmmm

5:11
e|--------------------------------------------------|
B|--------------------------------------------------|
G|--------------------------------------------------|
D|--------------------------------------------------| 
A|---------5------------5-------------5---------3---|
D|-0---0-------00---0-------00---0---0----00--h3----|
   m   m       mm   m       mm   m   m    mm

e|--------------------------------------------------|
B|--------------------------------------------------|
G|--------------------------------------------------|
D|/10b----------------------------------------------|
A|/10b----------------------------------------------|
D|/10b----------------------------------------------|

e|--------------------------------------------------|
B|--------------------------------------------------|
G|--------------------------------------------------|
D|--------------------------------------------------| 
A|---------5------------5-------------5---------3---|
D|-0---0-------00---0-------00---0---0----00--h3----|
   m   m       mm   m       mm   m   m    mm

5:24
e|-------------------------------------------------------|
B|-------------------------------------------------------|
G|-------------------------------------------------------|
D|-------------------------------------------------------|
A|---------5------------3-----------------10---------7p0-|
D|-5---5-------33---3-------1010---10---10-----0-5h6-----|

e|--------------------------------------------------|
B|--------------------------------------------------|
G|--------------------------------------------------|
D|--------------------------------------------------| 
A|---------5------------5-------------5---------3---|
D|-0---0-------00---0-------00---0---0----00--h3----|
   m   m       mm   m       mm   m   m    mm

e|-------------------------------------------------------|
B|-------------------------------------------------------|
G|-------------------------------------------------------|
D|-------------------------------------------------------|
A|---------5------------3-----------------10---1-1---1-1-|
D|-5---5-------33---3-------1010---10---10-----1-1---1-1-|

5:37
e|-------------------------------------------------------------------------|
B|-------------------------------------------------------------------------|
G|-------------------------------------------------------------------------|
D|-------------------------------------------------------------------------|
A|-0-0-xx----5p0-----2-2-xx----5p0-----3-3-xx----5p0-----5-5-xx----5p0-----|
D|-0-0-xx5h7-----5p0-2-2-xx5h7-----5p0-3-3-xx5h7-----5p0-5-5-xx5h7-----5p0-|
                                                                           x2

e|-------------------------------------------------------------|
B|-------------------------------------------------------------|
G|-------------------------------------------------------------|
D|--------0-0-----------0-0-----------0-0----5-5---8-8---3-3---|
A|-0-0----0-0----2-2----0-0----3-3----0-0----5-5---8-8---3-3---|
D|-0-0-xx-0-0-xx-2-2-xx-0-0-xx-3-3-xx-0-0-xx-5-5---8-8---3-3---|

5:59
e|---------------------------------------------|
B|---------------------------------------------|
G|---------------------------------------------|
D|---------------------------------------------| x2
A|-5--------3--------5----------3/5----------6-|
D|-----7700-----5500-----7700-3-----7700-3/8---|
       mmmm     mmmm     mmmm       mmmm

e|---------------------------------------------|
B|---------------------------------------------|
G|---------------------------------------------|
D|---------------------------------------------| 
A|-5--------3--------5----------3/5----------6-|
D|-----7-0------5-0------7-0--3-----7700-3/8---|
       m m      m m      m m        mmmm

e|---------------------------------------------|
B|---------------------------------------------|
G|---------------------------------------------|
D|---------------------------------------------| 
A|-5--------3--------5----------3/5----------6-|
D|-----7700-----5500-----7700-3-----7700-3/8---|
       mmmm     mmmm     mmmm       mmmm




>:)




| ^3 triplet
| *  pinch harmonic
| /  slide up
| \  slide down
| h  hammer-on
| p  pull-off
| ~  vibrato
| +  harmonic
| x  Mute note
Tap to rate this tab
 
# A B C D E F G H I J K L M N O P Q R S T U V W X Y Z