Guitaretab - guitar tabs
Song name
# A B C D E F G H I J K L M N O P Q R S T U V W X Y Z
Home / T / Tool / 4 Degrees tab

Tool - 4 Degrees tab

Band : Tool
Album: Undertow
Song : 4
Tabbed by Nolan Venhola

----------------------------------------------------------------------------
Legend:

nh - natural harmonic
 ph - pinch harmonic
 
pm - palm mute
 x - muted string
 
h - hammer on
 p - pull off
 
\\ - slide down
 // - slide up
 
b - bend
 ~~ - vibrato
 
<7> - natural harmonic
 x/// - pick scrape (directions same as slide)
----------------------------------------------------------------------------

Hey, I saw there was no guitar tab for "4 degrees" here on UG,
so I found one that was good (in my opinion). Well, here it is: 

Tuning: drop D
Low to high: DADGBe
----------------------------------------------------------------------------


(clean)
                                                       x3
e---------------------------|-----------------------------
b--5--5-5-5--5-5-5-6-5-5-5--|--5(5)-5-5-5--5-5-5-6-5-5-5--
g--4--4-4-4--4-4-4-5-4-4-4--|--4(4)-4-4-4--4-4-4-5-4-4-4--
d--2------2--------3--------|--0h2------2--------3--------
a---------------------------|-----------------------------
d---------------------------|-----------------------------

e--------------------------------------------------------------------------
b--10-1010-8-/-13-x-8--8-8-x-6--6-6--6-66-/-10-1010-8-/-13-x-8--8-8-x-6----
g--9--9-9--7-/-12-x-7--7-7-x-5--5-5--5-55-/-9--9-9--7-/-12-x-7--7-7-x-5----
d--7--7-7--5-/-10-x-5--5-5-x-3--3-3--3-33-/-7--7-7--5-/-10-x-5--5-5-x-3----
a--------------------------------------------------------------------------
d--------------------------------------------------------------------------

(distortion)

e---------------------------------------------
b---------------------------------------------
g---------------------------------------------
d----------------------------------------3---- x2
a--0h2-x-x-0h2-xxx-33-0--0h2-x-x-0h2-xxx-3----
d--0h2-x-x-0h2-xxx-33-0--0h2-x-x-0h2-xxx-3----
                   pm-|

                      x3
e------------------------|-------------------------------
b------------------------|-------------------------------
g------------------------|-------------------------------
d------------------------|-------------------------------
a------------------------|-------------------------------
d--0h2-x-x-0h2-xxx-33-0--|--0h2-x-x-0h2-2-x-2-/-10-b-----
  pm - - - - - - - - - |   pm - - - - |

e---------------------------------------------
b---------------------------------------------
g---------------------------------------------
d----------------------------------------3---- x2
a--0h2-x-x-0h2-xxx-33-0--0h2-x-x-0h2-xxx-3----
d--0h2-x-x-0h2-xxx-33-0--0h2-x-x-0h2-xxx-3----
                   pm-|

                      x3
e------------------------|----------------------------------
b------------------------|----------------------------------
g------------------------|----------------------------------
d------------------------|----------------------------------
a------------------------|----------------------------------
d--0h2-x-x-0h2-xxx-33-0--|--0h2-x-x-0h2-2-x-0h2p0-3p0-2p0---
  pm - - - - - - - - - |   pm - - - - | ph - - - - - - - |

                         x3
e---------------------------|--------------------
b------55-5-----------------|------55-5-5-5-5-/--
g------44-4-----------------|------44-4-4-4-4-/--
d--0h2-22-2-----------------|--0h2-22-2-2-2-2-/--
a--0h2-22-2-----------------|--0h2-22-2-2-2-2-/--
d--0h2-22-2--0h2p0-3p0-2p0--|--0h2-22-2-2-2-2-/--
            ph - - - - - -|

e------------------------------------------
b--10-1010-8-/-13-x-8--8-8-x-6--6-6--6-66--
g--9--9-9--7-/-12-x-7--7-7-x-5--5-5--5-55--
d--7--7-7--5-/-10-x-5--5-5-x-3--3-3--3-33-- x3
a--7--7-7--5-/-10-x-5--5-5-x-3--3-3--3-33--
d--7--7-7--5-/-10-x-5--5-5-x-3--3-3--3-33--

                           x3
e-----------------------------|-------------------------
b--5(5)-5-5-5--5-5-5-6\5-5-5--|--5(5)-5-5-5--5-5-5-6----
g--4(4)-4-4-4--4-4-4-5\4-4-4--|--4(4)-4-4-4--4-4-4-5----
d--0h2--2-2-2--2-2-2-3\2-2-2--|--0h2--2-2-2--2-2-2-3----
a--0h2--2-2-2--2-2-2-3\2-2-2--|--0h2--2-2-2--2-2-2-3----
d--0h2--2-2-2--2-2-2-3\2-2-2--|--0h2--2-2-2--2-2-2-3----

                      x3
e------------------------|----------------------------------
b------------------------|----------------------------------
g------------------------|----------------------------------
d------------------------|----------------------------------
a------------------------|----------------------------------
d--0h2-x-x-0h2-xxx-33-0--|--0h2-x-x-0h2-2-x-0h2p0-3p0-2p0---
  pm - - - - - - - - - |   pm - - - - | ph - - - - - - - |

                         x3
e---------------------------|--------------------
b------55-5-----------------|------55-5-5-5-5-/--
g------44-4-----------------|------44-4-4-4-4-/--
d--0h2-22-2-----------------|--0h2-22-2-2-2-2-/--
a--0h2-22-2-----------------|--0h2-22-2-2-2-2-/--
d--0h2-22-2--0h2p0-3p0-2p0--|--0h2-22-2-2-2-2-/--
            ph - - - - - -|

e------------------------------------------
b--10-1010-8-/-13-x-8--8-8-x-6--6-6--6-66--
g--9--9-9--7-/-12-x-7--7-7-x-5--5-5--5-55--
d--7--7-7--5-/-10-x-5--5-5-x-3--3-3--3-33-- x3
a--7--7-7--5-/-10-x-5--5-5-x-3--3-3--3-33--
d--7--7-7--5-/-10-x-5--5-5-x-3--3-3--3-33--

                           x3
e-----------------------------|-------------------------
b--5(5)-5-5-5--5-5-5-6\5-5-5--|--5(5)-5-5-5--5-5-5-6----
g--4(4)-4-4-4--4-4-4-5\4-4-4--|--4(4)-4-4-4--4-4-4-5----
d--0h2--2-2-2--2-2-2-3\2-2-2--|--0h2--2-2-2--2-2-2-3----
a--0h2--2-2-2--2-2-2-3\2-2-2--|--0h2--2-2-2--2-2-2-3----
d--0h2--2-2-2--2-2-2-3\2-2-2--|--0h2--2-2-2--2-2-2-3----
[ Tab from: http://www.guitaretab.com/t/tool/47374.html ]
e-------------------------------------------------------------------
b-------------------------------------------------------------------
g-------------------------------------------------------------------
d--12--12-12-12--8--8--8-8-8-8--17--17-17-17--15--15--15-15-15-15---
a--12--12-12-12--8--8--8-8-8-8--17--17-17-17--15--15--15-15-15-15---
d--12--12-12-12--8--8--8-8-8-8--17--17-17-17--15--15--15-15-15-15---

e---------------------------------------------------
b---------------------------------------------------
g---------------------------------------------------
d--12--12-12-12--8--8--8-8-8-8--17--17-17-17--15----
a--12--12-12-12--8--8--8-8-8-8--17--17-17-17--15----
d--12--12-12-12--8--8--8-8-8-8--17--17-17-17--15----

e---------------------------------------------
b---------------------------------------------
g---------------------------------------------
d----------------------------------------3---- x2
a--0h2-x-x-0h2-xxx-33-0--0h2-x-x-0h2-xxx-3----
d--0h2-x-x-0h2-xxx-33-0--0h2-x-x-0h2-xxx-3----
                   pm-|

e-----------------------------
b--5(5)-5-5-5--5-5-5-6\5-5-5--
g--4(4)-4-4-4--4-4-4-5\4-4-4--
d--0h2--2-2-2--2-2-2-3\2-2-2-- x4
a--0h2--2-2-2--2-2-2-3\2-2-2--
d--0h2--2-2-2--2-2-2-3\2-2-2--

e------------------------------------------
b--10-1010-8-/-13-x-8--8-8-x-6--6-6--6-66--
g--9--9-9--7-/-12-x-7--7-7-x-5--5-5--5-55--
d--7--7-7--5-/-10-x-5--5-5-x-3--3-3--3-33-- x3
a--7--7-7--5-/-10-x-5--5-5-x-3--3-3--3-33--
d--7--7-7--5-/-10-x-5--5-5-x-3--3-3--3-33--

e--------------------------
b--------------------------
g-----------------11-------
d--2-----2/9--12--11------- x3
a--2-----2/9--12--9---9p0--
d--2-----2/9--12--9---9p0--

e-------------------------------
b-------------------------------
g-------------------------------
d--9--------------9-------------
a--7--------------7-------------
d--7--------------7-------------

e--------------------------------------
b--------------------------------------
g--------------------------------------
d--2--2-x-2--------2--2-x-2-------3----
a--2--2-x-2--------2--2-x-2-------3----
d--2--2-x-2--------2--2-x-2-------3----

e--------------------------------------
b--------------------------------------
g--------------------------------------
d--2--2-x-2--------2--2-x-2--x-xx-3----
a--2--2-x-2--------2--2-x-2--x-xx-3----
d--2--2-x-2--------2--2-x-2--x-xx-3----

e------------------------
b--5--5-55--/-18-18-18---
g--4--4-44--/-17-17-17---
d--2--2-22--/-15-15-15--- x8
a--2--2-22--/-15-15-15---
d--2--2-22--/-15-15-15---

(notes in parenthesis are sounded by fret hand tapping)

e---------------------------------------------------------
b---------------------------------------------------------
g---------------------------------------------------------
d--------------------------------------------------------- x2
a---------------------------------------------------------
d--0h2-(0h2-0h2)-0h2-xxx-33-0--0h2-(0h2-0h2)-0h2-xxx-3----
                         pm-|

e------------------------------
b------------------------------
g------------------------------
d------------------------------ x4
a------------------------------
d--0h2-(0h2-0h2)-0h2-xxx-33-0--
                 pm - - - - -|

(let off pm slowly over last bar)
e-----------------------------
b-----------------------------
g-----------------------------
d----------------------------- x4
a-----------------------------
d--0h2-0-2-0-2--0h2-xxx-33-0--
  pm - - - - - - - - - - - -|

e------------------------------------------
b--10-1010-8-/-13-x-8--8-8-x-6--6-6--6-66--
g--9--9-9--7-/-12-x-7--7-7-x-5--5-5--5-55--
d--7--7-7--5-/-10-x-5--5-5-x-3--3-3--3-33-- x3
a--7--7-7--5-/-10-x-5--5-5-x-3--3-3--3-33--
d--7--7-7--5-/-10-x-5--5-5-x-3--3-3--3-33--

solo

e-------------------------------------------------------------------
b-------------------------------------------------10----------------
g------------------------------------------9-9h10----9-9h10-10------
d-------7---------7--7--------7----12-10-----------------------10---
a--8h10---10-8h10------8-8h10---10----------------------------------
d-------------------------------------------------------------------

e------------------------------------------------------------
b------------------------------------------------------------
g-----9h10-9-------------------------------------------------
d--10--------10-9p7----------------/12-12--12-12--10b--\\----
a-------------------10p9p8--/7--7----------------------------
d------------------------------------------------------------

*rest for two bars*

(volume off)

e----------------------------------
b----------------------------------
g----------------------------------
d--2-------------------------------
a--2---(volume swell)--(feedback)--
d--2-------------------------------

e------------------------------------------------------
b------------------------------------------------------
g------------------------------------------------------
d--xx---xx---xxx--2-2-3-----3-2---3-2---3-2-2--2---3b--
a--xx---xx---xxx--2-2-3-----3-2---3-2---3-2-2--2---3b--
d--xx---xx---xxx--2-2-3-----3-2---3-2---3-2-2--2---3b--

e----------------------------------------------
b----------------------------------------------
g----------------------------------------------
d--xx---xx---xxx--2-2-3-----3-2---3-2---3-2-2--
a--xx---xx---xxx--2-2-3-----3-2---3-2---3-2-2--
d--xx---xx---xxx--2-2-3-----3-2---3-2---3-2-2--

e-----------------------------------------------
b------------------------------6-------------b--
g------------------------------5-------------b--
d--2--2--2----2--2--2----2--2--3--(feedback)----
a--2--2--2----2--2--2----2--2--3----------------
d--2--2--2----2--2--2----2--2--3----------------
Related for 4 Degrees tab