Song name
# A B C D E F G H I J K L M N O P Q R S T U V W X Y Z

Tool - Die Eier Von Satan tab

Band- Tool
Song- Die Eier Von Satan

Tuning: Drop D (D A D G B E)

only one thing, use lots of distortion...it sounds really good that way...

intro (palm muted)
E|---------------------------------------------------------------------------||
B|---------------------------------------------------------------------------||
G|---------------------------------------------------------------------------||
D|---------------------------------------------------------------------------||
A|---------------------------------------------------------------------------||
D|-0-0-0-//slow pick slides on string//---0-0-//slightly faster pick sldies//||
repeat until nessecary


the rest of the song....almost
E|----------------16b-x-------------------||
B|----------------16b-x-------------------||
G|----------------x---x-------------------||
D|---0-0--0-x-----0---x----0-0-0--x-------||
A|---0-0--0-x-----0---x----0-0-0--x-------||
D|---0-0--0-x-----0---x----0-0-0--x-------||
Tap to rate this tab
 
# A B C D E F G H I J K L M N O P Q R S T U V W X Y Z