Song name
# A B C D E F G H I J K L M N O P Q R S T U V W X Y Z

Tool - Vicarious tab

Vicarious - Tool

(my personal shortened and modified version for acoustic w/ lyrics)
http://www.youtube.com/watch?v=wlBkVv6kvhs

Standard Drop D Tuning


|------------------------------------------------------------------------------|
|------------------------------------------------------------------------------|
|-7-----5-----7-----7/9-----5-7-----7/10-----9-----5---5/7/9-----5-----7---5/7-|
|------------------------------------------------------------------------------|
|-5-----3-----5-----5/7-----3-5-----5/8------7-----3---3/5/7-----3-----5---3/5-|
|---0-0---0-0---0-0-----0-0-----0-0------0-0---0-0---0-------0-0---0-0---0-----|

(all 0's are palm mutes. repeat again and end like this)
|------------------------------|
|------------------------------|
|-5/7/9-----5-----7--7\5-------|
|------------------------------|
|-3/5/7-----3-----5--5\3-------|
|-------0-0---0-0---0----------|


(Main Riff)                       (Second Riff)
|-------------------------------|-------------------------------|
|-------------------------------|-------------------------------|
|-------------------------------|-------------------------------|
|-------------------------------|-------------------------------|
|--------------------------15---|-13h12--0-12~~~-0-12-13-0-0-15-|
|-0---0h12-0---0h10-0-0h15------|--0-----0--0----0--0----0-0-15-|
                                        pm      pm      pmpm

(palm mute main riff during verses)

eye on the tv
cause tragedy thrills me
whatever flavor
it happens to be like
killed by the husband
drowned by the ocean
shot by his own son
she used a poison

(second riff)
in his tea
and kissed him goodbye
that's my kind of story


 it's no fun 'til someone dies...
|-------------------------------------------|
|-------------------------------------------|
|-------------------------------------------|
|-0---x-x-3-0---x-x-5-0---x-x-3-0---x-x-x---|
|-0---x-x-3-0---x-x-5-0---x-x-3-0---x-x-x---|
|-0---x-x-3-0---x-x-5-0---x-x-3-0---x-x-x---|

(hit main riff again 4x)

(palm mute main riff during more verses)
don't look at me like
i am a monster
frown out your one face
but with the other
stare like a junkie
into the TV
stare like a zombie
while the mother

(second riff)
holds her child
and watches him die

pleas to the sky crying... (same as second but w/ addtl part in the end here)
|--------------------------------------|
|--------------------------------------|
|--------------------------------------|
|--------------------------------------|
|-13h12--0-12~~~-0-12-13-0-0-15-0-0-10-|
|--0-----0--0----0--0----0-0-15-0-0-10-|
        pm      pm      pmpm   pmpm


(second riff)
why, oh why


 cause i need to watch things..die...       from a distance...
|----------------------------|----------------------------------------|
|----------------------------|----------------------------------------|
|----------------------------|----------------------------------------|
|-2-2-2-3-3-3-5-5-5-10-10-10-|-0--0-3h0-5h0-0-------------------------|
|-------------7-7-7-10-10-10-|-0--0-3h0-5h0-0--------3----------5-5-0-|
|-3-3-3-3-3-3-5-5-5-10-10-10-|-0--0-3h0-5h0-0--0h3h5----0-0h3h5---5-0-|

vicariously i live while the whole world dies
you all too, don't lie
(back to main riff 4x)



|----------------------------------|
|----------------------------------|
|----------------------------------|
|----------------------------------|
|-0-0-0-12-0--0-0--0-10-0--0-0-15--|
|-0-0-0-12-0--0-0--0-10-0--0-0-15--|
(palm mute all with lyrics)
why can't we just admin it
why can't we just admit it
we won't give pause until
the blood is flowin
neither the brave nor bold
will write a story so
we won't give pause until
the blood is flowin



 i need to watch things die,       from a good safe distance...
|----------------------------|----------------------------------------|
|----------------------------|----------------------------------------|
|----------------------------|----------------------------------------|
|-2-2-2-3-3-3-5-5-5-10-10-10-|-0--0-3-0-5-0-0-------------------------|
|-------------7-7-7-10-10-10-|-0--0-3-0-5-0-0--------3----------5-5-0-|
|-3-3-3-3-3-3-5-5-5-10-10-10-|-0--0-3-0-5-0-0--0h3h5----0-0h3h5---5-0-|

vicariously i live while the whole world dies
you all feel the same so


 why can't we just admit it
|-------------------------|
|-------------------------|
|-------------------------|
|-0-0-0---0--0-0-----0-0--|
|-0-0-0---0--0-0-----0-0--|
|-0-0-0---0--0-0-----0-0--|
(palm mute all)


(drums enter)
|------------------------------|
|------------------------------|
|------------------------------|
|-0-0-0-x--0--0-0--0-x--0-0-x--|
|-0-0-0-x--0--0-0--0-x--0-0-x--|
|-0-0-0-x--0--0-0--0-x--0-0-x--|

(if u can manage to do that part with the lyrics, give it a shot...i def can't :<)
blood like rain come down
drum on grave and ground



(omg the fun part! :D! palm all 0's)
(match the syllables with the non-pm chords for the chant)
|---------------------------------|---------------------------------|
|---------------------------------|---------------------------------|
|---------------------------------|---------------------------------|
|-0-0-0-12--0--0-0--0-12--0-0-10--|-0-0-0-14--0--0-0--0-10--0-0-12--|
|-0-0-0-12--0--0-0--0-12--0-0-10--|-0-0-0-14--0--0-0--0-10--0-0-12--|
|-0-0-0-12--0--0-0--0-12--0-0-10--|-0-0-0-14--0--0-0--0-10--0-0-12--|

       part           vam -  pire        part           war -  rior


|---------------------------------|---------------------------------|
|---------------------------------|---------------------------------|
|---------------------------------|---------------------------------|
|-0-0-0-15--0--0-0--0-14--0-0-10--|-0-0-0-14--0--0-0--0-10--0-0-12--|
|-0-0-0-15--0--0-0--0-14--0-0-10--|-0-0-0-14--0--0-0--0-10--0-0-12--|
|-0-0-0-15--0--0-0--0-14--0-0-10--|-0-0-0-14--0--0-0--0-10--0-0-12--|

       car     -      ni  -  vore        and            voy  -  eur


(it repeats again but diff lyrics)

|---------------------------------|---------------------------------|
|---------------------------------|---------------------------------|
|---------------------------------|---------------------------------|
|-0-0-0-12--0--0-0--0-12--0-0-10--|-0-0-0-14--0--0-0--0-10--0-0-12--|
|-0-0-0-12--0--0-0--0-12--0-0-10--|-0-0-0-14--0--0-0--0-10--0-0-12--|
|-0-0-0-12--0--0-0--0-12--0-0-10--|-0-0-0-14--0--0-0--0-10--0-0-12--|

      still          have     the        trans     -    mit  -  tal


|---------------------------------|---------------------------------|
|---------------------------------|---------------------------------|
|---------------------------------|---------------------------------|
|-0-0-0-15--0--0-0--0-14--0-0-10--|-0-0-0-14--0--0-0--0-10--0-0-12--|
|-0-0-0-15--0--0-0--0-14--0-0-10--|-0-0-0-14--0--0-0--0-10--0-0-12--|
|-0-0-0-15--0--0-0--0-14--0-0-10--|-0-0-0-14--0--0-0--0-10--0-0-12--|

       sync           to      the       death          rat   -  tle



 la la, la la, la la lie... (this will take a while to get the lyrics with)
|---------------------------------------|---------------------------------------|
|---------------------------------------|---------------------------------------|
|---------------------------------------|---------------------------------------|
|-0-0-0-12--0--0-0--0-12----------------|-0-0-0-14--0--0-0--0-10----------------|
|-0-0-0-12--0--0-0--0-12----------0h3h5-|-0-0-0-14--0--0-0--0-10----------0h3h5-|
|-0-0-0-12--0--0-0--0-12--0-0h3h5-------|-0-0-0-14--0--0-0--0-10--0-0h3h5-------|

|---------------------------------------|---------------------------------------|
|---------------------------------------|---------------------------------------|
|---------------------------------------|---------------------------------------|
|-0-0-0-15--0--0-0--0-14----------------|-0-0-0-14--0--0-0--0-10----------------|
|-0-0-0-15--0--0-0--0-14----------0h3h5-|-0-0-0-14--0--0-0--0-10----------0h3h5-|
|-0-0-0-15--0--0-0--0-14--0-0h3h5-------|-0-0-0-14--0--0-0--0-10--0-0h3h5-------|



(back to the intro)
|------------------------------------------------------------------------------|
|------------------------------------------------------------------------------|
|-7-----5-----7-----7/9-----5-7-----7/10-----9-----5---5/7/9-----5-----7---5/7-|
|------------------------------------------------------------------------------|
|-5-----3-----5-----5/7-----3-5-----5/8------7-----3---3/5/7-----3-----5---3/5-|
|---0-0---0-0---0-0-----0-0-----0-0------0-0---0-0---0-------0-0---0-0---0-----|


|------------------------------|
|------------------------------|
|------------------------------|
|------------------------------|
|-5-----3-----5----------0h3h5-|
|-0-0-0-0-0-0-0-0--0h3h5-------|
   pmpm  pmpm

credulous at best your
desire to believe in
angels in the hearts of
men

pull your head on out your hippie
haze and give a listen
shouldn't have to say it all
again

the universe is hostile
so impersonal
devour to survive so it is

so it's always been... (palm mute 0's)
|------------------------------------------------------------------------------------|
|------------------------------------------------------------------------------------|
|------------------------------------------------------------------------------------|
|-12---0-0-0-0-10---0-0-0-0-12---0-0-0-0-13-|-12---0-0-0-0-10---0-0-0-0-12--0-0-10---|
|-12---0-0-0-0-10---0-0-0-0-12---0-0-0-0-13-|-12---0-0-0-0-10---0-0-0-0-12--0-0-10---|
|-12---0-0-0-0-10---0-0-0-0-12---0-0-0-0-13-|-12---0-0-0-0-10---0-0-0-0-12--0-0-10---|


(going back to stuff you've already learned)
|-------------------------------|
|-------------------------------|
|-------------------------------|
|-------------------------------|
|-13h12--0-12~~~-0-12-13-0-0-15-|
|--0-----0--0----0--0----0-0-15-|
        pm      pm      pmpm

we all feed
on tragedy
it's like blood to a vampire


|-------------------------------------------|
|-------------------------------------------|
|-------------------------------------------|
|-0---x-x-3-0---x-x-5-0---x-x-3-0---x-x-x---|
|-0---x-x-3-0---x-x-5-0---x-x-3-0---x-x-x---|
|-0---x-x-3-0---x-x-5-0---x-x-3-0---x-x-x---|


|----------------------------|--------------------------|
|----------------------------|--------------------------|
|----------------------------|--------------------------|
|-2-2-2-3-3-3-5-5-5-10-10-10-|-0----3-0----5-0----3-0---|
|-------------7-7-7-10-10-10-|-0----3-0----5-0----3-0---|
|-3-3-3-3-3-3-5-5-5-10-10-10-|-0----3-0----5-0----3-0---|
  *---double these fast----*

vicariously i
live while the whole world dies
much better you than

 i... (palm mute 0's, repeat 4x)
|------------------------------------|
|------------------------------------|
|------------------------------------|
|-0-0--3--0--0-0--0-2-0--------------|
|-0-0--3--0--0-0--0-2-0--------0h3h5-|
|-0-0--3--0--0-0--0-2-0--0h3h5-------|


(repeat 3x and then end.....with this)
|-------------------------|---------------------|
|-------------------------|---------------------|
|-------------------------|---------------------|
|-------------0h3h5-------|-------------0-0-0---|
|-------0h3h5-------0h3h5-|-------0h3h5-0-0-0---|
|-0h3h5-------------------|-0h3h5-------0-0-0---|
                                        pmpmpm


PHEW! =D!
Tap to rate this tab
 
# A B C D E F G H I J K L M N O P Q R S T U V W X Y Z