Song name
# A B C D E F G H I J K L M N O P Q R S T U V W X Y Z

Tool - 10000 Days Wings Part 2 tab

10,000 Days (Wings, part 2)
Tool
10,000 Days

gtr. I: Clean with delay, low volume
gtr. II: Wah, slight overdrive/clean (?)
(see what works for you)
gtr. III: Distortion

gtr. I: (0:43)
E)------------------------------------------------------------|
B)------------------------------------------------------------|
G)------------------------------------------------------------|
D)(do a very quiet pickscrape up the neck)-----7--------------|
A)---------------------------------------------0-(let ring)---|
D)------------------------------------------------------------|

"Listen to the tales and romanticize,
How we'd follow the path of the hero.
Boast about the day when the rivers overrun.
How we rise to the height of our halo.

Listen to the tales as we all rationalize
Our way into the arms of the savior,
Feigning all the trials and the tribulations;
None of us have actually been there,-"

"-Not like you...." (1:35)
E)------------------------------------|
B)------------------------------------|
G)------------------------------------|
D)-777777777777777(tremelo picking)---|
A)------------------------------------|
D)------------------------------------|

(1:50) (while playing each of these notes, do volume swells
E)---------------------------------------| with your right
B)---------------------------------------| pinky.*  Takes
G)---------------------------------------| some practice.
D)-10-----9-----10-----9------7----------|
A)---------------------------------------|  x3
D)---------------------------------------|
*unless you're left-handed, in which case your left pinky :P

"Ignorant siblings in the congregation..."
E)-------------------------------------------|
B)-------------------------------------------|
G)-------------------------------------------|
D)-10-----9-----10-----9---5---5h7-----------| x3
A)-------------------------------------------|
D)-------------------------------------------|

E)-------------------------------------------|
B)-------------------------------------------|
G)-------------------------7---7h9-----------|
D)-10-----9-----10-----9---------------------|
A)-------------------------------------------|
D)-------------------------------------------|

"home...." (3:16) (gtr. I [back at low volume])
*E)----------------------------------|
*B)----------------------------------|
*G)-9---9---9---9---9---9---9---9----|
*D)--10--10--10--10--10--10--10--10--| x2
*A)----0---0---0---0---0---0---0---0-|
*D)----------------------------------|

E)--------------------------*
B)--------------------------*
G)-9--9--9--9--9--9--9--9---*
D)--------------------------* x2
A)--00-00-00-00-00-00-00-00-*
D)--------------------------*

Then: (3:41)
*E)----------------------------------|
*B)----------------------------------|
*G)-9---9---9---9---9---9---9---9----|
*D)--10--10--10--10--10--10--10--10--|
*A)----0---0---0---0---0---0---0---0-|
*D)----------------------------------|

E)--------------------------------------|
B)--------------------------------------|
G)-10---12---9---10---9---7---9---12----|
D)---10---10--10---10--10--10--10---10--|
A)-----0----0---0----0---0---0---0----0-|
D)--------------------------------------|
(skip this part the 3rd time)
E)--------------------------*
B)--------------------------*
G)-9--9--9--9--9--9--9--9---* x3
D)--------------------------*
A)--00-00-00-00-00-00-00-00-*
D)--------------------------*

(4:13)
*E)----------------------------------|
*B)----------------------------------|
*G)-9---9---9---9---9---9---9---9----|
*D)--10--10--10--10--10--10--10--10--|
*A)----0---0---0---0---0---0---0---0-|
*D)----------------------------------|

E)--------------------------------------*
B)--------------------------------------*
G)-10---12---9---10---9---7---9---12----*
D)---10---10--10---10--10--10--10---10--* x4
A)-----0----0---0----0---0---0---0----0-*
D)--------------------------------------*

"home...."(4:46)
E)--------------------------|
B)--------------------------|
G)-9--9--9--9--9--9--9--9---|
D)--------------------------| x3
A)--00-00-00-00-00-00-00-00-|
D)--------------------------|

*E)----------------------------------|
*B)----------------------------------|
*G)-9---9---9---9---9---9---9---9----|
*D)--10--10--10--10--10--10--10--10--|  x2
*A)----0---0---0---0---0---0---0---0-|
*D)----------------------------------|

E)--------------------------*
B)--------------------------*
G)-9--9--9--9--9--9--9--9---*
D)--------------------------* x2
A)--00-00-00-00-00-00-00-00-*
D)--------------------------*

"You're the only one..." (5:10)
*E)----------------------------------|
*B)----------------------------------|
*G)-9---9---9---9---9---9---9---9----|
*D)--10--10--10--10--10--10--10--10--|
*A)----0---0---0---0---0---0---0---0-|
*D)----------------------------------|

E)--------------------------------------|
B)--------------------------------------|
G)-10---12---9---10---9---7---9---12----|
D)---10---10--10---10--10--10--10---10--|
A)-----0----0---0----0---0---0---0----0-|
D)--------------------------------------|

E)--------------------------*
B)--------------------------*
G)-9--9--9--9--9--9--9--9---*
D)--------------------------*  x2
A)--00-00-00-00-00-00-00-00-*
D)--------------------------*

"Give me my, give me my-"
E)---------------------------|
B)---------------------------|
G)-9--9--9--9--x-------------|
D)------------------77777777-|
A)--00-00-00-00x0-0000000000-|
D)---------------------------|
"-wings!" (gtr. II) (5:39)
*E)-------------------------------------------------|
*B)-------------------------------------------------|
*G)-5--5--5--5--4--4--4--4--5--5--5--5--4--4--4--4--|
*D)-------------------------------------------------|
*A)-------------------------------------------------|
*D)-------------------------------------------------|

E)-------------------------*
B)-------------------------*
G)-2--0--2--2--2--0--2--4--*
D)-------------------------*  x2
A)-------------------------*
D)-------------------------*

E)-------------------------------------------------|
B)-------------------------------------------------|
G)-5--5--5--5--4--4--4--4--5--5--5--5--7--7--4--4--|
D)-------------------------------------------------|
A)-------------------------------------------------|
D)-------------------------------------------------|

E)-------------------------|
B)-------3-----------3-----|
G)-2--0-----2--2--0-----2--|
D)-------------------------|
A)-------------------------|
D)-------------------------|

E)-------------------------------------------------|
B)-------------------------------------------------|
G)-5--5--5--5--4--4--4--4--5--5--5--5--7--7--4--4--|
D)-------------------------------------------------|
A)-------------------------------------------------|
D)-------------------------------------------------|
(wah this next part)
E)-------------------------|
B)-------------------------|
G)-2222222222222-----------|
D)-------------------------|
A)-------------------------|
D)-------------------------|

SWEET GUITAR SOLO (6:26) (note: this is either a
E)--------------------------|  tremelo pick or a pedal
B)--------------------------|  effect or both See what
G)-2/5----)))))))))))))))))-|  works for you.)
D)--------------------------|
A)--------------------------|
D)--------------------------|

E)--------------------------|
B)--------------------------|
G)-(5))))))))))))))))))-/2--|
D)--------------------------|
A)--------------------------|
D)--------------------------|

E)--------------------------|
B)--------------------------|
G)-2/5-------4/10-------9---|
D)--------------------------|
A)--------------------------|
D)--------------------------|

E)--------------------------|
B)--------------------------|
G)-2/5-------4/10-------9---|
D)--------------------------|
A)--------------------------|
D)--------------------------|

E)--------------------------|
B)--------------------------|
G)-(9))))))))))))))))))))---
D)--------------------------|
A)--------------------------|
D)--------------------------|

E)--------------------------|
B)--------------------------|
G)-5--///9-9----9/14-))))))-|
D)--------------------------|
A)--------------------------|
D)--------------------------|

E)--------------------------|
B)--------------------------|
G)-(14))))))))))))))---12---|
D)--------------------------|
A)--------------------------|
D)--------------------------|

E)--------------------------|
B)--------------------------|
G)-(12)))))))---14---15-----|
D)--------------------------|
A)--------------------------|
D)--------------------------|

E)--------------------------|
B)--------------------------|
G)-(15))))))/17))))))))))))-
D)--------------------------|
A)--------------------------|
D)--------------------------|

E)--------------------------|
B)--------------------------|
G)-14-h15p14-15p14-15p14)))-|
D)--------------------------|
A)--------------------------|
D)--------------------------|
(slow down tremelo picking)
E)--------------------------|
B)--------------------------|
G)-(14))))))))))))))))))))--
D)--------------------------|
A)--------------------------|
D)--------------------------|

E)--------------------------|
B)--------------------------|
G)-14--9x9x9x9x9x9/10-------|
D)--------------------------|
A)--------------------------|
D)--------------------------|
"Give me my, give me my, give me my..."
E)--------------------------|
B)--------------------------|
G)-(10)-----10------10------|
D)--------------------------|
A)--------------------------|
D)--------------------------|
"Give me my, give me my, give me my..."
E)--------------------------|
B)--------------------------|
G)-9/10-------9h10-9--------|
D)--------------------------|
A)--------------------------|
D)--------------------------|
"Wings!!!" (7:31)
E)---------------------------------------------|
B)---------------------------------------------|
G)---------------------------------------------|
D)-10------/12-9------/12-10------/12-9--------|
A)----------------------------------------10---|
D)---------------------------------------------|

E)--------------------------------------|
B)--------------------------------------|
G)--------------------------------------|
D)--------------------------------------|
A)-10-12--1012--10-12--1012--10-1210-12-|
D)--------------------------------------|

E)---------------------------------|
B)---------------------------------|
G)---------------------------------|
D)-10------9------10------9--------|
A)----------------------------10---|
D)---------------------------------|

E)--------------------------------------|
B)--------------------------------------|
G)--------------------------------------|
D)--------------------------------------|
A)-10-12--1012--10-12--1012--10-1210-12-|
D)--------------------------------------|

*E)--------------------------------|
*B)--------------------------------|
*G)----------------------------7---|
*D)-10------9------10------9-------|
*A)--------------------------------|
*D)--------------------------------|

E)--------------------------*
B)--------------------------*
G)-7-9--79--7-9--79--7-97-9-*
D)--------------------------* x2
A)--------------------------*
D)--------------------------*

E)-----------------------------|
B)-----------------------------|
G)-(9)-9-9-9999^10^10^10^9////-|
D)-----------------------------|
A)-----------------------------|
D)-----------------------------|
(8:20) (gtr. III)
*E)-------------------------------------------------------|
*B)-------------------------------------------------------|
*G)-------------------------------------------------------|
*D)-7-7-7-7-7-7-5-5-5-5-5-5-7-7-7-7-7-7-10-10-10-10-10-10-|
*A)-7-7-7-7-7-7-5-5-5-5-5-5-7-7-7-7-7-7-10-10-10-10-10-10-|
*D)-7-7-7-7-7-7-5-5-5-5-5-5-7-7-7-7-7-7-10-10-10-10-10-10-|

E)-------------------------------------------------*
B)-------------------------------------------------*
G)-------------------------------------------------*
D)-3-3-3-3-3-3-3-3-3-3-3-3-0-0-0-0-0-0-3-3-3-3-3-3-* x2
A)-3-3-3-3-3-3-3-3-3-3-3-3-0-0-0-0-0-0-3-3-3-3-3-3-*
D)-3-3-3-3-3-3-3-3-3-3-3-3-0-0-0-0-0-0-3-3-3-3-3-3-*

"Set as I am in my ways and my arrogance..." (8:36)
*E)-------------------------------------------------------|
*B)-1010101010108-8-8-8-8-8-10101010101013-13-13-13-13-13-|
*G)-9-9-9-9-9-9-7-7-7-7-7-7-9-9-9-9-9-9-12-12-12-12-12-12-|
*D)-7-7-7-7-7-7-5-5-5-5-5-5-7-7-7-7-7-7-10-10-10-10-10-10-|
*A)-7-7-7-7-7-7-5-5-5-5-5-5-7-7-7-7-7-7-10-10-10-10-10-10-|
*D)-7-7-7-7-7-7-5-5-5-5-5-5-7-7-7-7-7-7-10-10-10-10-10-10-|

E)-------------------------------------------------*
B)-6-6-6-6-6-6-6-6-6-6-6-6-3-3-3-3-3-3-6-6-6-6-6-6-*
G)-5-5-5-5-5-5-5-5-5-5-5-5-2-2-2-2-2-2-5-5-5-5-5-5-*
D)-3-3-3-3-3-3-3-3-3-3-3-3-0-0-0-0-0-0-3-3-3-3-3-3-* x2
A)-3-3-3-3-3-3-3-3-3-3-3-3-0-0-0-0-0-0-3-3-3-3-3-3-*
D)-3-3-3-3-3-3-3-3-3-3-3-3-0-0-0-0-0-0-3-3-3-3-3-3-*

"One!..." (8:51) (borrowed this from Jake-HK)
E)--------------------------------------|
B)--------------------------------------|
G)--------------------------------------|
D)-7--5--7~(7)\10/7p0-h5h7p0--0h2p0-----| x4
A)-7--5--7~(7)\10/7p0-h5h7p0--0h2p0-----|
D)-7--5--7~(7)\10/7p0-h5h7p0--0h2p0-----|

(gtr. II does this:..)
E)-------------------------------------------|
B)-------------------------------------------|
G)-------------------------------------------|
D)-------------------------------------------| x3
A)-------------------------------------------|
D)-7-7-7-5-5-5-7-7-7(7)\10/7p0-h5h7p0-0h2p0--|
pm___________________________________________

(...while gtr. III does this:)
E)-------------------------------------|
B)-------------------------------------|
G)-------------------------------------|
D)-7-7-7-7-7-7-7-7-7-7-7-7-7-7-7-7-7-7-| x3
A)-7-7-7-7-7-7-7-7-7-7-7-7-7-7-7-7-7-7-|
D)-7-7-7-7-7-7-7-7-7-7-7-7-7-7-7-7-7-7-|
pm_____________________________________

gtr. II
E)-----------------------------------|
B)-----------------------------------|
G)-----------------------------------|
D)-----------------------------------|
A)-----------------------------------|
D)7-7-7-5-5-5-7-7-7-10--10--10-10-10-|

gtr. III
E)------------------------------------|
B)------------------------------------|
G)------------------------------------|
D)-7-7-7-7-7-7-7-7-7-10--10--10-10-10-|
A)-7-7-7-7-7-7-7-7-7-10--10--10-10-10-|
D)-7-7-7-7-7-7-7-7-7-10--10--10-10-10-|
pm__________________

gtr. III (9:14)
E)-------------------------------------------------------|
B)-------------------------------------------------------|
G)-------------------------------------------------------| x2
D)-9-9-9-9-9-9-0-0-0-0-0-0-9-9-9-9-9-9-12-12-12-12-12-12-|
A)-9-9-9-9-9-9-0-0-0-0-0-0-9-9-9-9-9-9-12-12-12-12-12-12-|
D)-9-9-9-9-9-9-0-0-0-0-0-0-9-9-9-9-9-9-12-12-12-12-12-12-|

E)-------------------------------------------------------|
B)-------------------------------------------------------|
G)-------------------------------------------------------|
D)-5-5-5-5-5-5-2-2-2-2-2-2-5-5-5-5-5-5-0-----------------|
A)-5-5-5-5-5-5-2-2-2-2-2-2-5-5-5-5-5-5-0--(let ring)-----|
D)-5-5-5-5-5-5-2-2-2-2-2-2-5-5-5-5-5-5-0-----------------|

gtr. I (9:28)
E)-------------------------|
B)-------------------------|
G)-------------------------|
D)----2-----2-----2--3-----| x4
A)--00-00-00-00-00-003-----|
D)-0-----0-----0-----3-----|

E)-------------------------------------------|
B)-------------------------------------------|
G)-------------------------------------------|
D)(3)------/4-/5---/6----/7------------------|
A)(3)------/4-/5---/6----/7---(let ring)-----|
D)(3)------/4-/5---/6----/7------------------|

(9:49)
"Daylight dims, leaving cold fluorescents..."
(after he says this, you do this)
E)---------------------------------------|
B)---------------------------------------|
G)-----------------10-----9-(let ring)---|
D)---5-----10---12----12-----------------|
A)-3---3-8----8--------------------------|
D)---------------------------------------|

(then do this 5 more times, each time after Maynard
says something)
(10:48)
"Hallelujah, it's time for you to bring me-
E)------------------------------------------|
B)------------------------------------------|
G)------------------------------------------|
D)--------9-------12------------------------|
A)--------------------------------10--------|
D)------------------------------------------|
"-home...."
E)-------------------------------------------|
B)-------------------------------------------|
G)-------------------------------------------|
D)-9-------(let ring)------------------------|
A)-------------------------------------------|
D)-------------------------------------------|

Take a BIIIIG bow, (you deserve it) and feel free
to let me know how I've done.

Till next time!
Root Beer

P.S. All lyrics are official.
Tap to rate this tab
 
# A B C D E F G H I J K L M N O P Q R S T U V W X Y Z