Song name
# A B C D E F G H I J K L M N O P Q R S T U V W X Y Z

Tool - Wings For Marie tab

-------------------------------------------------------------------------------
			     Wings for Marie - Tool
-------------------------------------------------------------------------------
Tabbed by:UFO
Email:maskedinsanity@hotmail.com  OR  www.myspace.com/neighbourhood_chat

Tuning:Drop D

Firstly, I have no idea how Adam Jones plays it, this is merely my interpretation of it 
am offering it as an alternative to the other tabs on this site which, coincidently seem 
be virtually identical.
I hope it all makes sense. Use it as a rough guideline.  Its quite hard to
tab note for note. Im sure you'll get the gist of it.
Comments and questions are welcome.


Intro Clean - Palm muted - slow down, slowly releasing palm mute
e|---------|
B|---------|
G|---------|
D|-14------|
A|----15-0-|
D|---------|

Main Riff - with delay
e|---------------------------------------|
B|---------------------------------------|play over and over
G|---------------------------------------|
D|-14---14---14---14---14---14---14---14-|
A|----0----0----0----0----0----0----0----|
D|---------------------------------------|

Main riff variation - maintaining exact same technique and tempo with picking hand.
e|--------------------------------------------------|
B|--------------------------------------------------|
G|--------------------------------------------------|
D|---14--------14--------14--------14--------14-----|
A|-0----h15--0----h15--0----h15--0----h15--0----h15-|
D|--------------------------------------------------|

Main riff 2
e|-------------------------------------------------------|
B|-------------------------------------------------------|
G|-------------------------------------------------------|
D|---14h15---17---17p15p14---15---14---12---14---17---15-|
A|-0-------0----0----------0----0----0----0----0----0----|
D|-------------------------------------------------------|

Main riff variation 2
e|----------------------------------------------|
B|----------------------------------------------|
G|----------------------------------------------|
D|---14---14---14---14---14---14---14---17---14-|
A|-0----0----0----0----0----0----0----0----0----|
D|----------------------------------------------|

There are a few other variations in there but they all follow the same
pattern and are fairly easy to work out.

Distortion
e|-----------------------------------|
B|-----------------------------------|
G|-----------------------------------|
D|-999999-000000-999999-121212121212-|X2
A|-999999-000000-999999-121212121212-|
D|-999999-000000-999999-121212121212-|

e|-------------------------|
B|-------------------------|
G|-------------------------|
D|-555555-222222-555555--0-|
A|-555555-222222-555555--0-|
D|-555555-222222-555555--0-|

Clean
e|-----------------------------|
B|-----------------------------|
G|-----------------------------|
D|---5-------10--------10----9-|
A|-3---3-/-8----8-/-12----12---|
D|-----------------------------|

e|----------------------|
B|----------------------|
G|----------------------|
D|----------------------|
A|-14--17--10--12h13p12-|
D|----------------------|


| /  slide up
| \  slide down
| h  hammer-on
| p  pull-off
| ~  vibrato
| +  harmonic
| x  Mute note
===================================================================
Tap to rate this tab
# A B C D E F G H I J K L M N O P Q R S T U V W X Y Z