Song name
# A B C D E F G H I J K L M N O P Q R S T U V W X Y Z

Toots And The Maytals - Love Gonna Walk Out On Me tab

"Love Gonna Walk Out On Me"


Intro
e:------------------------------------------------------------3-3-3----------|
B:------------------------------------------------------------3-3-2--------1-|
G:-------------------------------------------------------------------------0-|
D:---3--0h2-0--------0h2-0-------------0h2-0-----3--0h2-0------------------2-|
A:---3--------3----3-------3-----0-2-3-------3---3--------3---2-2-2--0-2-3-3-|
E:-----------------------------3------------------------------3-3-3-3--------|

e:-----------------------------|
B:---3p1--3p1-------3p1--3p1---|
G:---0----0---------0----0-----|
D:---2----2---------2----2-----|
A:---3----3---------3----3-----|
E:-----------------------------|


Verse 1

      C      G        Am
Every time I see your face
          F     C         G
Something moves within my heart
       C           Em   Am
And it thrills me to my soul

And tell me that

  F              G      Am
Love's not gonna let me down

Oh no Oh no

  F              G    Am
Love's not gonna let me down


Verse 2

C G Am
F C G
C Em Am


Chorus

F              G    Am
Love's not gonna let me down
F              G    C   Em
Love's not gonna let me down
F              G    Am
Love's not gonna let me down
F              G    C   Em
Love's not gonna let me down


Solo:
(Just pick these chords)

C G Am
F C G
C Em Am
F G Am
F G Am


Verse 3

C G Am
F C G
C Em Am


Chorus

F              G    Am
Love's not gonna let me down
F              G    C   Em
Love's not gonna let me down
F              G    Am
Love's not gonna let me down
F              G    C   Em
Love's not gonna let me down
F              G    Am
Love's not gonna let me down
F              G    C   Em
Love's not gonna let me down
F              G    Am
Love's not gonna let me down

F             G    Am

End on Am

The End!!

Please Rate this song, its one of my favorites and no one had a tab so i did it.
Tap to rate this tab
# A B C D E F G H I J K L M N O P Q R S T U V W X Y Z