Song name
# A B C D E F G H I J K L M N O P Q R S T U V W X Y Z

Topherman - Curse Your Name tab

-------------------------------------------------------------------------------
			     CURSE YOUR NAME - TopherMan
-------------------------------------------------------------------------------
Tabbed by:Chandler Wood
Email:chandler_wood13@yahoo.com

Tuning:Drop D dadgbe

INTRO: 

e|---------------------------------------------------------------------------|
B|-------------7---------5---------------------5-----------------------------|
G|----7----------------------------7---------------------7--------7----------|
D|---------------------------------------------------------------------------|
A|---------------------------------------------------------------------------|
D|----0-----0-------0----------0----------0----------0--------0---------0----|

e|---------------|
B|---------------|
G|----6----------|
D|---------------|   Repeat: x2
A|---------------|
D|-----------0---|

e|---------------------------------------------------------------------------|
B|---------------------------------------------------------------------------|
G|-----7-------------------------------7-------------------------------4-----|
D|---------------------0------------------------------0----------------------|
A|---------------------------------------------------------------------------|
D|-----9--------9-------------9--------9--------9------------9---------5-----|

e|---------------------------------------------------------------------------|
B|---------------------------------------------------------------------------|
G|----------------------5/2--------------------------------------------------|
D|-----------0------------------------0----------2/4----------4-----------4--|
A|---------------------------------------------------------------------------|
D|-----5----------5-------------0---------0------0-------0---------0---------|

e|---------------------------------------------------------------------------|
B|---------------------------------------------------------------------------|
G|---------------------------------------------------------------------------|
D|-----------4------------4------------4-----------4-----------4----------4--|
A|---------------------------------------------------------------------------|
D|----0------------0-------------0-----------0-----------0-----------0-------|

CHORDS: 

intro/verse 

D,B,G,D

chorus

B,G,D 

bridge

G,D,A 


Email me if you have any questions! 

http://www.tophermanband.com/
Tap to rate this tab
# A B C D E F G H I J K L M N O P Q R S T U V W X Y Z