Guitaretab - guitar tabs
Song name
# A B C D E F G H I J K L M N O P Q R S T U V W X Y Z

Topi Sorsakoski And Agents - Kaksi Kitaraa tab

                                     Topi Sorsakoski & Agents
                                         -Kaksi kitaraa-         By:Tube

Intro:

   Em              Hm                F#7              Hm
e -------7--9--7~--|------7--9--7~--|------6--9--6~---7--10--9--7----------------|
h -----8-----------|----7-----------|----7------------7------------7-------------|
G ---9-------------|--7-------------|--9------------------------------7--6-------|
D -----------------|----------------|---------------------------------------9~---|
A -----------------|----------------|--------------------------------------------|
E -----------------|----------------|--------------------------------------------|

   Em                    Hm                     F#7            Hm
e ------7--9--7--9--7~--|------7--9--7--9--7~--|------6--9--6--7~----|
h ----8-----------------|----7-----------------|----7----------------|
G --9-------------------|--7-------------------|--9------------------|
D ----------------------|----------------------|---------------------|
A ----------------------|----------------------|---------------------|
E ----------------------|----------------------|---------------------|

Em            Hm             F#7              Hm    
Yö hopeainen, yö satumainen, yö jonka suojaan nyt vie kaipuu polttavainen

Em                      Hm                       F#7               Hm
Ja yössä tunnelmoimaan, jää laulu vanha soimaan, kai tunnet laulun sen

   F#7        Em  F#7
   Kuu meille loistaa,   
e -----------------------------------------------|
h ----------------------7~---6h7p6-7-8~--7~------|
G -----------------------------------------------|
D -----------------------------------------------|
A -----------------------------------------------|
E -----------------------------------------------|
 
   F#7       Em  F#7
   Yö laulun toistaa,  
e -----------------------------------------------|
h ----------------------7~---6h7p6-7-8~--7~------|
G -----------------------------------------------|
D -----------------------------------------------|
A -----------------------------------------------|
E -----------------------------------------------|

Em            Hm         F#7           Hm         Em             Hm
Nukkuu don ja uinuu maa, kukaan ei nyt nähdä saa, suudelmaa niin hehkuvaa 

F#7          Hm   Em           Hm      F#7           Hm
Peitti pilvi kun, laulu kahden kitaran meille kertoo tarinan

Em          Hm      F#7           Hm    Em Hm  F#7          Hm   Em Hm  F#7        Hm
Jossa lempi kasakan voitti kaiken muun, hiljaa soivat yössä vain herkät kielet kitarain
[ Tab from: http://www.guitaretab.com/t/topi-sorsakoski-and-agents/185821.html ]
   Em              Hm                F#7              Hm
e -------7--9--7~--|------7--9--7~--|------6--9--6~---7--10--9--7----------------|
h -----8-----------|----7-----------|----7------------7------------7-------------|
G ---9-------------|--7-------------|--9------------------------------7--6-------|
D -----------------|----------------|---------------------------------------9~---|
A -----------------|----------------|--------------------------------------------|
E -----------------|----------------|--------------------------------------------|

   Em                    Hm                     F#7            Hm
e ------7--9--7--9--7~--|------7--9--7--9--7~--|------6--9--6--7~----|
h ----8-----------------|----7-----------------|----7----------------|
G --9-------------------|--7-------------------|--9------------------|
D ----------------------|----------------------|---------------------|
A ----------------------|----------------------|---------------------|
E ----------------------|----------------------|---------------------|

     F#7            Em   F#7
e --------------------------------|
h ---7tr--6tr--7tr--8tr--7tr------|         tr=tremolo picking
G --------------------------------|
D --------------------------------|
A --------------------------------|
E --------------------------------|

   Hm         Em  Hm     F#7            Em   F#7
   Kuu meille loistaa   
e -----------------------14tr-13tr-14tr-15tr-14tr--------|
h -------------------------------------------------------|
G -------------------------------------------------------|
D -------------------------------------------------------|
A -------------------------------------------------------|
E -------------------------------------------------------|

Hm        Em  Hm
Yö laulun toistaa     

Em            Hm         F#7           Hm         Em             Hm
Nukkuu don ja uinuu maa, kukaan ei nyt nähdä saa, suudelmaa niin hehkuvaa 

F#7          Hm   Em           Hm      F#7           Hm
Peitti pilvi kun, laulu kahden kitaran meille kertoo tarinan
e ------------------------------------6h7-6-----6-7----------|
h -------------------------------------------9-------7-------|
G ------------------------------------------------------7----|
D -----------------------------------------------------------|
A -----------------------------------------------------------|
E -----------------------------------------------------------|                                    

Em          Hm      F#7           Hm    Em Hm  F#7          Hm   Em Hm  F#7        Hm
Jossa lempi kasakan voitti kaiken muun, hiljaa soivat yössä vain herkät kielet kitarain

   Em              Hm                F#7              Hm
e -------7--9--7~--|------7--9--7~--|------6--9--6~---7--10--9--7----------------|
h -----8-----------|----7-----------|----7------------7------------7-------------|
G ---9-------------|--7-------------|--9------------------------------7--6-------|
D -----------------|----------------|---------------------------------------9~---|
A -----------------|----------------|--------------------------------------------|
E -----------------|----------------|--------------------------------------------|

   Em                    Hm                     F#7
e ------7--9--7--9--7~--|------7--9--7--9--7~--|------6--9--6---19\----|
h ----8-----------------|----7-----------------|----7------------------|
G --9-------------------|--7-------------------|--9--------------------|
D ----------------------|----------------------|-----------------------|
A ----------------------|----------------------|-----------------------|
E ----------------------|----------------------|-----------------------|