Song name
# A B C D E F G H I J K L M N O P Q R S T U V W X Y Z

Toploader - Dancing In The Moonlight tab

Dancing in the Moonlight

Capo on 3rd


Intro


e|-------------------0-0----------0--------------0--------------------------------------------|
b|--------------2-----------3---------3--------------3----------------1--------------1--------|
g|---------2------------------------------2--------------2---------0--------------0-----------|
d|----0----------------------------------------2----------------2--------------0--------2-----|
a|------------------------------------------------------------3-------------2-----------------|
E|--------------------------------------------------------------------------------------------|


Verse


e|-------0---0---0---0------3---3---3---3----------------------------------------0---0---0---0-|
b|-------1---1---1---1------3---3---3---3------------------1--------------1------1---1---1---1-|
g|-------2---2---2---2------0---0---0---0--------------0--------------0----------0---0---0---0-|
d|-------2---2---2---2------0---0---0---0----------2--------------0--------------2---2---2---2-|
a|-------0---0---0---0------2---2---2---2------3--------------2------------------0---0---0---0-|
E|--------------------------3---3---3---3------------------------------------------------------|


Chorus


e|-------0---0---0---0------3---3---3---3------0---0---0---0------0---0---0---0-|
b|-------1---1---1---1------3---3---3---3------1---1---1---1------1---1---1---1-|
g|-------2---2---2---2------0---0---0---0------0---0---0---0------0---0---0---0-|
d|-------2---2---2---2------0---0---0---0------2---2---0---0------2---2---2---2-|
a|-------0---0---0---0------2---2---2---2------3---3---2---2------0---0---0---0-|
E|--------------------------3---3---3---3---------------------------------------|


Intro (x2)
Verse (x2)
Intro
Verse (x2)
Chorus (x2)
Intro
Verse (x2)
Chorus (x2)
   Piano solo
Only chorus to the end
Tap to rate this tab
 
# A B C D E F G H I J K L M N O P Q R S T U V W X Y Z