Song name
# A B C D E F G H I J K L M N O P Q R S T U V W X Y Z

Toploader - Dancing In The Moon Light tab

Dancing in the moonlight tab

hey i'm a long time user of this site but first time tabber so correct what you want!
Great song and have fun!

INTRO
e|-----------------------6-----------------------6----------|
B|-----4--6~~8--8--6--8-----8--6-p4--6--8--6--4-----6--8--6-|
G|---5------------------------------------------------------| x?
D|-6--------------------------------------------------------|
A|----------------------------------------------------------|
E|----------------------------------------------------------|

CHORDS
e|----------------3--3--3--3-----|
B|----------------4--3--4----4---|
G|--------3-xx-3--3--3--5------5-|
D|3-xx-3--3-xx-3-----------------|
A|3-xx-3--1-xx-1-----------------|
E|1-xx-1-------------------------|
Tap to rate this tab
# A B C D E F G H I J K L M N O P Q R S T U V W X Y Z