Song name
# A B C D E F G H I J K L M N O P Q R S T U V W X Y Z

Toque Profundo - Botas Negras tab

Esta es una cancion bien facil y rockera de Toque, uno de los mejores grupos de rock 
Dominicana, es mi primera transcripcion espero les guste.....

Intro

E---------------------|
B---------------0-----|
G----------------0----|
D---4---4----0----0---|
A--2---2--2-----------|
E----------3----------|


Versos
      Bm       G                  Bm    G
Que importa saber que no puedes volar tan solo
                Bm                   G
un pasaje a la izquierda del viejo sofa que no existe


E-s/7------10----9------7--|
B----7-------7-----7----0--|
G-----7-------7------7-----|
D--------------------------|
A--------------------------|
E--------------------------|

Coro

     D       A            Bm       D       A
Pero no es solo tu corta edad tan solo no ser
    Bm        D        A           Bm     A
uno más con ganas de abrir esta puerta y ver
      G
más alla

El ultimo coro se toca con D y A al final de la cancion. El solo es bien facil, solo 
que escucharlo y le cojeran el "way"

http://toqueprofundo.com/
Tap to rate this tab
# A B C D E F G H I J K L M N O P Q R S T U V W X Y Z