Song name
# A B C D E F G H I J K L M N O P Q R S T U V W X Y Z

Torche - Triumph Of Venus tab

---------------------------------------------------------------------------
		      "TRIUMPH OF VENUS" - Torche
---------------------------------------------------------------------------
Tabbed by: Greg Frisenda
clanktherobot@yahoo.com

Tuning: This is the accurate Torche "bomb" tuning, the same on every song.

(Note on tab line = actual pitch of string)	
	e = B
	B = G
	G = D
	D = A
	A = A (one octave below)
	E = Z (completely slack)

Riff A
e|-------------------------------------------------|
B|-------------------------------------------------|
G|-4--4--4--4--4--4--4--4--4--4--4--4--4--4--4--4--|
D|-2--2--2--2--2--2--2--2--2--2--2--2--2--2--2--2--|
A|-2--2--2--2--2--2--2--2--2--2--2--2--2--2--2--2--|
E|-------------------------------------------------|

Riff B - 4x
e|---------------------------------------------|
B|---------------------------------------------|
G|---------------------------------------------|
D|-7-7-7-5-5-5-9-9-9-5-5-5--12-12-7-7-9-9-5-5--|
A|-7-7-7-5-5-5-9-9-9-5-5-5--12-12-7-7-9-9-5-5--|
E|---------------------------------------------|

Riff C - 4x
     p       p        p        p        p    p     p     p
e|-----------------------------------------------------------|
B|-9-0--0----------11-0--0-----------14-0-------11-0---------|
G|---------9-0--0-----------12-0--0-------14-0--------12-0---|
D|-----------------------------------------------------------|
A|-----------------------------------------------------------|
E|-----------------------------------------------------------|

Riff D - 4x
     p       p       p       p        p    p     p     p     p      p
e|------------------------------------------------------------------------|
B|-6-0--0----------9-0--0-----------6-0-------------11-0--14-0------------|
G|---------7-0--0----------9-0--0--------7-0---9-0---------------14-0-----|
D|------------------------------------------------------------------------|
A|------------------------------------------------------------------------|
E|------------------------------------------------------------------------|

Repeat Riff C - 4x
Repeat Riff B - 4x
Repeat Riff A
Repeat Riff C - 4x
Repeat Riff D (with Fill 1)

Fill 1
   ~               ~                 ~          ~      pick slide
e|------------------------------------------------------------------------|
B|-14-------------16----------------14----------11------------------------|
G|------------------------------------------------------------------------|
D|-----------------------------------------------------x------------------|
A|-----------------------------------------------------x------------------|
E|------------------------------------------------------------------------|

Riff E - 4x - End
e|-------------------------------------------|
B|-------------------------------------------|
G|-------------------------------------------|
D|-2-2-2-0-0-0-4-4-4-0-0-0--7-7-2-2-4-4-0-0--|
A|-2-2-2-0-0-0-4-4-4-0-0-0--7-7-2-2-4-4-0-0--|
E|-------------------------------------------|



| /  slide up
| \  slide down
| h  hammer-on
| p  pull-off
| ~  vibrato
| +  harmonic
| x  Mute note
===========================================================================
Tap to rate this tab
# A B C D E F G H I J K L M N O P Q R S T U V W X Y Z