Song name
# A B C D E F G H I J K L M N O P Q R S T U V W X Y Z

Torche - Bring Me Home tab

Artist: Torche
Song: Bring Me Home
Album: In Return EP

Tuning: AADGBE
(low E string tuned all the way down low A)
i don't know if this tuning is correct. i learned by ear. sounds perfect.

i'll just give you the chords and you can figure out the rhythm

part A (verse?)

E--(3)---(3)----------------(5)----|
B--(3)---(3)----------------(4)----|
G---5-----5--5-4-0---4~~~----2-----|
D---5-----5--5-5-5-----------2-----|
A---3-----3------------------0-----|
A---3-----3------------------0-----|


part B (chorus?)

E--(8)--(8)----(5)-----------(3)--|
B--(8)--(8)----(5)-----------(3)--|
G---10---10--9--7----9--9-----5---|
D---10---10--9--7----9--9-----5---|
A---8----8---7--5----7--7--0--3---|
A---8----8---7--5----7--7--0--3---|

E--(8)--(8)----(5)---------------(5)---|
B--(8)--(8)----(5)---------------(4)---|
G---10---10--9--7----5--7--9--10--2----|
D---10---10--9--7----5--7--9--10--2----|
A---8----8---7--5----3--5--7--8---0----|
A---8----8---7--5----3--5--7--8---0----|

first tab in many years. hope it's alright.
enjoy!
Tap to rate this tab
 
# A B C D E F G H I J K L M N O P Q R S T U V W X Y Z