Song name
# A B C D E F G H I J K L M N O P Q R S T U V W X Y Z

Torche - The Last Word tab

Torche: The Last Word. Track 10 of the 1st album Torche.
Drop A Tuning: AEADF#B.


Feedback intro  using Reverb, Delay, Phaser. One of the two guitars uses some Reverse Delay

2:02 -  Motif 1:
-----------------------------------------------------------------|
-12h13-12-----12h13-12--------13r12-13r12----13r12---------------|
----------12-----------12/14--------------12-------12/14-14------|
-----------------------------------------------------------------|
-----------------------------------------------------------------|
-----------------------------------------------------------------|

Play around using Feedback

2:50 Riff 1a)    Reverb, not too much. Lower the tone.
-------------------------------------------------------------------|
-------------------------------------------------------------------|
-------------------------------------------------------------------|
-------------------------------------------------------------------|
-5-----5---------5-----5---------5-----5---------5-----5-----------|
---0-0---0-0-0-0---0-0---0-0-0-0---0-0---0-0-0-0---0-0---0-0-0-0---|


Riff 1b)
----------------------------------|
----------------------------------|
----------------------------------|
----------------------------------|
-3-5-2-5---------3-5-2-5----------|
---------0-0-0-0---------0-0-0-0--|

Play Riff 1a) again

Then play Riff 1b) with the different end phrase. etc....
--------------------------------------------------------------------------|
--------------------------------------------------------------------------|
--------------------------------------------------------------------------|
--------------------------------------------------------------------------|
-3-5-2-5---------3-5-2-5----------0-----2---3---5---7---10---9--5--7--5---|
---------0-0-0-0---------0-0-0-0----0-0---0---0---0---0----0----0-----0---|

------------------------------------------------------------------------------------------------|
------------------------------------------------------------------------------------------------|
------------------------------------------------------------------------------------------------|
------------------------------------------------------------------------------------------------|
-----5---------5-----5----------0-----2---3---5---7---10---9--5--7--5/////slide down-(1st time)-|
-0-0---0-0-0-0---0-0---0-0-0-0----0-0---0---0---0---0----0----0-----0---------------------------|

Play all this all over again.
Have fun.
Tap to rate this tab
 
# A B C D E F G H I J K L M N O P Q R S T U V W X Y Z