Torche - Across The Shields tab

Torche
"Across the Shields"
From the album "Meanderthal"

Tuning: Drop A (AADGBE)

I don't know what to call the sections, so I'll label them alphabetically

[A]
|---------------------|-------------------------|
|---------------------|-------------------------|
|-7-7-----------------|-------------------------|
|-0-0-9-9-11-11-11-11-|-11-11-11-11-11-11-11-11-| x8 (I think)
|-0-0-0-0--0--0--0--0-|--0--0--0--0--0--0--0--0-|
|-----0-0--0--0--0--0-|--0--0--0--0--0--0--0--0-|

[B]
|-----------------|-----------------|
|-----------------|-----------------|
|-9-9-9-9-9-9-9-9-|-9-9-9-9-9-9-9-9-|
|-7-7-7-7-7-7-7-7-|-7-7-7-7-7-7-7-7-|
|-9-9-9-9-9-9-9-9-|-5-5-5-5-5-5-5-5-|
|-9-9-9-9-9-9-9-9-|-5-5-5-5-5-5-5-5-|

|-------------------------|-------------------------|
|-------------------------|-------------------------|
|-------------------------|-------------------------|
|-11-11-11-11-11-11-11-11-|-11-11-11-11-11-11-11-11-|  x2
|--0--0--0--0--0--0--0--0-|--0--0--0--0--0--0--0--0-|
|--0--0--0--0--0--0--0--0-|--0--0--0--0--0--0--0--0-|

[C]
|-----------------|-----------------|
|-------7---------|---7-------------|
|-7-----------7---|---------7-6-4---|
|---5-5---5-5---5-|-5---5-5-------7-|
|-----------------|-----------------|
|-----------------|-----------------|

|---------------------|-------------------------|
|---------------------|-------------------------|
|---------------------|-------------------------|
|-5-4-----11-11-11-11-|-11-11-11-11-11-11-11-11-|
|-----7-5--0--0--0--0-|--0--0--0--0--0--0--0--0-|  Then back to [A]
|----------0--0--0--0-|--0--0--0--0--0--0--0--0-|

[D]
|--9--9--9--9--9--9--9--9--9--9--9--9--9--9--9--9-|
|-10-10-10-10-10-10-10-10-10-10-10-10-10-10-10-10-|
|--9--9--9--9--9--9--9--9--9--9--9--9--9--9--9--9-|
|--0--0--0--0--0--0--0--0--0--0--0--0--0--0--0--0-| x3
|--0--0--0--0--0--0--0--0--0--0--0--0--0--0--0--0-|
|--0--0--0--0--0--0--0--0--0--0--0--0--0--0--0--0-|

|-----------------|
|-----------------|
|-----------------|
|-10--10-\-5--5-0-| 
|-10--10-\-5--5-0-|
|-10--10-\-5--5-0-|


[E]
|---------------------------------------|
|---------------------------------------|
|---------------------------------------|
|-0-0-0-0-0-0-12-12-12-12-0-12-12-12-12-| x3
|-0-0-0-0-0-0-12-12-12-12-0-12-12-12-12-| 
|-0-0-0-0-0-0-12-12-12-12-0-12-12-12-12-|

On first repeat, end with
|----------------------------------------|
|----------------------------------------|
|----------------------------------------|
|-0-0-0-0-0-0-12-12-12-12-0-10h12-12-12--|
|-0-0-0-0-0-0-12-12-12-12-0-10h12-12-12--|
|-0-0-0-0-0-0-12-12-12-12-0-10h12-12-12--|

On second repeat, end with
|-----------------|
|-----------------|
|-----------------|
|-10--10-\-5--5-0-|
|-10--10-\-5--5-0-|
|-10--10-\-5--5-0-|

Second guitar plays
|--9--9--9--9--9--9--9--9--9--9--9--9--9--9--9--9-|
|-10-10-10-10-10-10-10-10-10-10-10-10-10-10-10-10-|
|--9--9--9--9--9--9--9--9--9--9--9--9--9--9--9--9-|
|--0--0--0--0--0--0--0--0--0--0--0--0--0--0--0--0-|
|--0--0--0--0--0--0--0--0--0--0--0--0--0--0--0--0-| x2
|--0--0--0--0--0--0--0--0--0--0--0--0--0--0--0--0-|

|-10-10-10-10-10-10-10-10-10-10-10-10-10-10-10-10---|
|-10-10-10-10-10-10-10-10-10-10-10-10-10-10-10-10---|
|--9--9--9--9--9--9--9--9--9--9--9--9--9--9--9--9---|
|--0--0--0--0--0--0--0--0--0--0--0--0--0--0--0--0---|
|--0--0--0--0--0--0--0--0--0--0--0--0--0--0--0--0---|
|--0--0--0--0--0--0--0--0--0--0--0--0--0--0--0--0---|

|--9--9--9--9--9--9--9--9--9--9--9--9--9--9--9--9-|
|-10-10-10-10-10-10-10-10-10-10-10-10-10-10-10-10-|
|--9--9--9--9--9--9--9--9--9--9--9--9--9--9--9--9-|
|--0--0--0--0--0--0--0--0--0--0--0--0--0--0--0--0-|
|--0--0--0--0--0--0--0--0--0--0--0--0--0--0--0--0-|
|--0--0--0--0--0--0--0--0--0--0--0--0--0--0--0--0-|

[F]
|-----------------|
|-----------------|
|-----------------|
|-10--10-\-5--5-0-|
|-10--10-\-5--5-0-| END
|-10--10-\-5--5-0-|

Tap to rate this tab
 
# A B C D E F G H I J K L M N O P Q R S T U V W X Y Z