Song name
# A B C D E F G H I J K L M N O P Q R S T U V W X Y Z

Torche - Across The Shields tab

Tuned: Drop A (AADGBE)

intro
|---------------------------------------------|
|---------------------------------------------|
|-7-7-----------------------------------------|
|-0-0-9-9-11-11-11-11-11-11-11-11-11-11-11-11-|
|-0-0-0-0--0--0--0--0--0--0--0--0--0--0--0--0-|
|---------------------------------------------|

|---------------------------------------------|
|---------------------------------------------|
|-7-7-----------------------------------------|
|-0-0-9-9-11-11-11-11-11-11-11-11-11-11-11-11-|
|-0-0-0-0--0--0--0--0--0--0--0--0--0--0--0--0-|
|---------------------------------------------|

|---------------------------------------------|
|---------------------------------------------|
|-7-7-----------------------------------------|
|-0-0-9-9-11-11-11-11-11-11-11-11-11-11-11-11-|
|-0-0-0-0--0--0--0--0--0--0--0--0--0--0--0--0-|
|---------------------------------------------|

|---------------------------------------------|
|---------------------------------------------|
|-7-7-----------------------------------------|
|-0-0-9-9-11-11-11-11-11-11-11-11-11-11-11-11-|
|-0-0-0-0--0--0--0--0--0--0--0--0--0--0--0--0-|
|---------------------------------------------|




verse
|---------------------------------------------|
|---------------------------------------------|
|-7-7-----------------------------------------|
|-0-0-9-9--7--7--7--7--7--7--7--7--7--7--7--7-|
|-0-0-0-0--0--0--0--0--0--0--0--0--0--0--0--0-|
|---------------------------------------------|

|---------------------------------------------|
|---------------------------------------------|
|-7-7-----------------------------------------|
|-0-0-9-9-11-11-11-11-11-11-11-11-11-11-11-11-|
|-0-0-0-0--0--0--0--0--0--0--0--0--0--0--0--0-|
|---------------------------------------------|

|---------------------------------------------|
|---------------------------------------------|
|-7-7-----------------------------------------|
|-0-0-9-9--7--7--7--7--7--7--7--7--7--7--7--7-|
|-0-0-0-0--0--0--0--0--0--0--0--0--0--0--0--0-|
|---------------------------------------------|

|---------------------------------------------|
|---------------------------------------------|
|-7-7-----------------------------------------|
|-0-0-9-9-11-11-11-11-11-11-11-11-11-11-11-11-|
|-0-0-0-0--0--0--0--0--0--0--0--0--0--0--0--0-|
|---------------------------------------------|




chorus
|--------------------------------------------|
|--------------------------------------------|
|7-7-----9--9--9--9--9--9--9--9--9--9--9--9--|
|0-0-9-9-7--7--7--7--7--7--7--7--7--7--7--7--|
|0-0-0-0-0--0--0--0--0--0--0--0--0--0--0--0--|
|--------------------------------------------|

|---------------------------------------------|
|---------------------------------------------|
|-7-7-----------------------------------------|
|-0-0-9-9-11-11-11-11-11-11-11-11-11-11-11-11-|
|-0-0-0-0--0--0--0--0--0--0--0--0--0--0--0--0-|
|---------------------------------------------|




end of chorus lead

guitar 1
|---------------------------------------------------------|
|----------7--5------------7-5----------------------------|
|--7--6-0-------0--7--6--0-----0--7--6--4-----------------|
|------------------------------------------7--5--4--------|
|---------------------------------------------------7--5--|
|---------------------------------------------------------|

guitar 2
|---------------------------------------------------------|
|---------19-17-----------19-17---------------------------|
|-19-18-0-------0-19-18-0------0--19-18-16----------------|
|------------------------------------------19-17-16-------|
|---------------------------------------------------19-17-|
|---------------------------------------------------------|

*while watching videos of Torche when Juan was still in the band, you can see him doing 
some fairly different things
every time he plays this song. sometimes he plays what i've tabbed, others he just 
improvises and does a series of
pulloffs and bends, etc etc. so, i tabbed it as an octaved version of the lower part, 
which is how Steve was playing
it live (with assistance from a pedal) when they were a three piece.*




bridge x2

guitar 1
|-----------------------------|
|-----------------------------|
|--7h9-9--9--7h9-9--9--7h9-9--|
|--7---7--7--7---7--7--7---7--|
|--0---0--0--0---0--0--0---0--|
|-----------------------------|

guitar 2
|-----------------------------|
|-14-14-14-14-14-14-14-14-14--|
|-14-14-14-14-14-14-14-14-14--|
|-14-14-14-14-14-14-14-14-14--|
|--0--0--0--0--0--0--0--0--0--|
|--0--0--0--0--0--0--0--0--0--|


both
|-------------|
|-------------|
|-------------|
|-12-12-\-7-7-|
|-10-10-\-5-5-|
|-10-10-\-5-5-|




heavy riff (A): both guitars play twice [part 1 x7, part 2 x1]

[part 1]
|---------------------------|
|---------------------------|
|---------------------------|
|---------------------------|
|---------------------------|
|-0--0-10h12-12-0-12-12-12--|

[part 2]
|-------------|
|-------------|
|-------------|
|-12-12-\-7-7-|
|-10-10-\-5-5-|
|-10-10-\-5-5-|




heavy riff (B) guitar 1 [part 1 x7]

[part 1]
|---------------------------|
|---------------------------|
|---------------------------|
|---------------------------|
|---------------------------|
|-0--0-10h12-12-0-12-12-12--|


guitar 2: this part is basically just very rapid strumming on an A chord played at the 
14th fret,
the D note (15th fret/b string) comes in after the heavy riff has repeated 4 times, 
plays for two
cycles of that, and goes back to the C# note for the last remaining cycle of the heavy 
riff. i'm
confident that almost anyone can pick out the proper rhythm/tempo to strum at, so i took 
the lazy
way out in tabbing this section.
|------------------------------------------------------------------------|
|-14-strum-----------------------------15-strum---------14-strum---------|
|-14------rapidly----------------------14----rapidly----14------rapidly--|
|-14-----------------------------------14---------------14---------------|
|--0------------------------------------0----------------0---------------|
|------------------------------------------------------------------------|




ending (both guitars)
|--------------------------------------|
|--------------------------------------|
|--------------6-----------------------|
|-12-12-\-7-7--7-----------------------|
|-10-10-\-5-5--0--let-chord-ring-------|
|-10-10-\-5-5--0-----------------------|



There aren't many Torche tabs online, and the ones out there aren't overly accurate, so 
I decided to give it a shot.

I personally enjoy play this song on a guitar tuned AEADBGE, i find that playing the 
heavy end riffs with full power
chords sounds as good as playing it as an octave/5th chord like on the record. but, do 
whatever works for you!

email me at ifrigginshred at hotmail dot com with any comments/corrections. hope this helps.
Tap to rate this tab
 
# A B C D E F G H I J K L M N O P Q R S T U V W X Y Z