Song name
# A B C D E F G H I J K L M N O P Q R S T U V W X Y Z

Torfrock - Komasong tab

ist leider nur der anfang den ich rausgehört habe:

--------------------------|
--------------------------|
--------------------------|
--------------------------|
---2-------2--------------|
---0h3h4---0--------------|

das spielt man am anfang ziemlich oft
dannach kommt das gleich ncohmal, aber nur alles eine seite darunter
als:

-------------------------|
-------------------------|
-------------------------|
---2--------2------------|
---0h3h4----0------------|
-------------------------|


bin noch dabei das lied komplet rauszuhöären dauert aber bestimmt noch

Robin: 16.12.09
Tap to rate this tab
# A B C D E F G H I J K L M N O P Q R S T U V W X Y Z