Song name
# A B C D E F G H I J K L M N O P Q R S T U V W X Y Z

Tori Amos - Caught A Lite Sneeze tab

I liked what was submitted already, I just wanted to add some flourishes for the guitar,
play & use what you'd like!

Opening: [hum these notes]
[Fill 1]
e-----7-7-|
B---------|
G---5-----|
D-5-------| [2x]
A---------|
E---------|
Then:
e------------3--------|
B------4-------4-4----|
G---5----5-5-5--5-5-5-|
D--5-5-5--5--5-----5--|  [8x]
A-3----3-----------3--|
E---------------------|
Then:
[Fill 2]
e-3-3-3h6-6-6-6-6-6-6-----3-3-3-3-3-3h6-6-------------|
B-4-4-4-4-4-4-4-4-4-4-4-4-4-4-4-4-4-4-4-4-------------|
G-5-------------------5-5-------5---------------------|
D-5-----------------------------5---------------------| [2x]
A-3-----------------------------3---------------------|
E-----------------------------------------------------|
Finally:
[Fill 1]: 1x

Verse 1:
Cm            Eb       Ab          Fm7
Caught a lite sneeze caught a lite breeze
Cm       Eb            Ab    Fm7
Caught a lightweight lightingseed
Cm          Eb
Boys on my left side
Ab          Fm7
Boys on my right side
Cm          Eb
Boys in the middle
     Ab         Fm7
And you're not here
Cm       Eb             Ab    Fm7
do do do do do do do do do do do
         Cm   Eb
I need a big loan
         Ab   Fm7
From the girl zone

Chorus:
Cm    Eb
Building
Ab      Fm7 Cm  Eb
  tumbling  down
Ab       Fm7               Cm  Eb
  Didn't know our love was so small
Ab          Fm7
  Couldn't stand it at all
Cm  Eb     Ab        Fm7        Cm
Mr.    St. John just bring your son

[Fill 2]: 1x

Verse 2:
    Cm       Eb
The spire is hot
       Ab          Fm7
And my cells can't feed
        Cm             Eb    Ab            Fm7
And you still got that Belle dragging your foots
    Cm        Eb          Ab   Fm7
I'm hiding it well Sister Ernestine
      Cm             Eb
But I still got that Belle
Ab              Fm7
Dragging my foots

Chorus:
[Fill 2]: 1x

Bridge:
Abmaj7   Fm           Ebadd9
Right on time you get closer
    Cm
And closer
Abmaj     Fm               Ebadd9  Cm
Called my name but there's no way in
Abmaj7   Fm
Use that fame
Ebadd9            Cm
Rent you wife and kids today
Fm
Maybe she will
Ab
Maybe she will

Verse 3:
Cm             Eb
caught a lite sneeze
Ab               Fm7
Dreamed a little dream
Cm       Eb        Ab       Fm7
Made my own pretty hate machine
Cm         Eb
Boys on my left side
Ab          Fm7
Boys on my right side
Cm          Eb         Ab         Fm7
Boys in the middle and you're not here
Cm            Eb
Boys in their dresses
    Ab         Fm7
And you're not here
        Cm   Eb            Ab   Fm7
I need a big loan from the girl zone
                Cm    Eb           Ab    Fm7
I said I need a bi-ig loan from the girl zone

Chorus:
Cm    Eb
Building
Ab      Fm7  Cm  Eb
  tumbling   down
Ab       Fm7               Cm  Eb
  Didn't know our love was so small
Ab          Fm7
  Couldn't stand it at all

e-3----3-----4---------1-----1-------3-|
B-4----4-----4---------1-----4-------4-|
G-5----3-----5---------1-----1-------5-|
D-5----5-----6---------1-------------5-|
A-3----6-----6---------3-------------3-|
E------------4-------------------------|
  Cm   Eb    Ab        Fm7   Fm7/Ab  Cm
    Mr.  St. John just bring your    son
Tap to rate this tab
 
# A B C D E F G H I J K L M N O P Q R S T U V W X Y Z