Song name
# A B C D E F G H I J K L M N O P Q R S T U V W X Y Z

Tori Kelly - All In My Head tab

-------------------------------------------------------------------------------
                                                     All In My Head - Tori Kelly
-------------------------------------------------------------------------------
Tabbed by: sanabs24
E-mail: jimmothyshelk@gmail.com

Tuning: Standard

CAP0 6

During the intro and verse, hit each individual note in the chord followed by
 slapping the body. In the chorus, strum the chords. This is a very easy song
 just listen to it to get the rhythm of the tab+slap and the strumming pattern.
 Enjoy!

e|-------------1----------------------------------------------------3--------|
B|---------3--------------------1-------------------------------1------------|
G|-----2--------------------0---------------------0---------2----------------|
D|-0--------------------2---------------------0---------3--------------------|
A|------------------0---------------------2----------------------------------|
E|------------------------------------0--------------------------------------|
Tap to rate this tab
# A B C D E F G H I J K L M N O P Q R S T U V W X Y Z