Song name
# A B C D E F G H I J K L M N O P Q R S T U V W X Y Z

Tori Kelly - Pretty Young Thing tab

[First Verse]

E|------------------------------------------|
B|------------------------------------------|
G|--9-----11-----13-----14----9-----6----9--|
D|--9-----11-----13-----14----9-----6----9--|
A|------------------------------------------|
E|--9-----11-----12-----14----9-----5----9--|


[Pre-chorus]

E|------------------------------------------|
B|------------------------------------------|
G|--6-----4-----9-----6-----4-----11-----9--|
D|--6-----4-----9-----6-----4-----11-----9--|
A|------------------------------------------|
E|--5-----4-----9-----5-----4-----10-----9--|


[Chorus]

E|--------------------7--|     E|-----------------|
B|--------------------7--|     B|-----------------|
G|--2-----4-----6-----8--| x2  G|--6-----4-----9--|
D|--2-----4-----6-----9--|     D|--6-----4-----9--|
A|--------------------9--|     A|-----------------|
E|--2-----4-----5-----7--|     E|--5-----4-----9--|


[Second Verse - Same as First Verse]


[Pre-chorus]


[Chorus]


[Bridge]

E|--4-----5-----6-----7--|--7-----8-----9--|--------------|             
B|--4-----5-----6-----7--|--7-----8-----9--|--------------|
G|--4-----5-----6-----7--|--7-----8-----9--|--9/11-----9--|
D|--4-----5-----6-----7--|--7-----8-----9--|--9/11-----9--|
A|--6-----7-----8-----9--|--9-----10----11-|--------------|
E|--4-----5-----6-----7--|--7-----8-----9--|--9/11-----9--|

E|--4-----5-----6-----7--|--7-----8-----9--|             
B|--4-----5-----6-----7--|--7-----8-----9--|
G|--4-----5-----6-----7--|--7-----8-----9--|
D|--4-----5-----6-----7--|--7-----8-----9--|
A|--6-----7-----8-----9--|--9-----10----11-|
E|--4-----5-----6-----7--|--7-----8-----9--|

(Vocals come in)

E|-----------------|   E|--7-----8-----9--|
B|-----------------|   B|--7-----8-----9--|
G|--6-----4-----2--|   G|--7-----8-----9--| x3
D|--6-----4-----2--|   D|--7-----8-----9--| 
A|-----------------|   A|--9-----10----11-|
E|--5-----4-----2--|   E|--7-----8-----9--|

[Chorus]
Tap to rate this tab
# A B C D E F G H I J K L M N O P Q R S T U V W X Y Z