Song name
# A B C D E F G H I J K L M N O P Q R S T U V W X Y Z

Tori Kelly - Rocket tab

If I could build a rocket, I would

Put all my dreams inside it, I would


----------------------------------------------|
-12-12-12-12-12-12--10-10---5-5-5-5-5-5-5-5---|
----------------------------------------------|
----------------------------------------------|repeat x2
--10-10-10-10-10-10--8--8--3-3-3-3-3-3-3-3----|
----------------------------------------------|

Maybe I could travel far into something new

Hang on to a shooting star, bursting into view

Just me and my fickle heart, lonely never felt so right

I would go anywhere tonight

--------------------------------------------------|
-5-5-5-5-5-5-5-5-5-5-5-5-7-7-8-8-5-5-5-5-7-7-8-8--|
--------------------------------------------------|
--------------------------------------------------|repeat x2
3-3-3-3-3-3-3-3-3-3-4-4-6-6-7-7-3-3-4-4-6-6-7-7---|
--------------------------------------------------|


If I could be a pilot, I would

Open up the sky see what's inside it I would

----------------------------------------------|
-12-12-12-12-12-12--10-10---5-5-5-5-5-5-5-5---|
----------------------------------------------|
----------------------------------------------|repeat x2
--10-10-10-10-10-10--8--8--3-3-3-3-3-3-3-3----|
----------------------------------------------|

Cuz' everyone's out doing things and I'm stuck in my room

But if this bed grew some wings then what could I not do?

Just me and my fickly heart, lonely never felt so right

I would go anywhere tonight

--------------------------------------------------|
-5-5-5-5-5-5-5-5-5-5-5-5-7-7-8-8-5-5-5-5-7-7-8-8--|
--------------------------------------------------|
--------------------------------------------------|repeat x2
3-3-3-3-3-3-3-3-3-3-4-4-6-6-7-7-3-3-4-4-6-6-7-7---|
--------------------------------------------------|

Oooooooo

Oooooooo

--------------------------------------------------|
--0-0-0-0-1-1-1-1-3-3-3-3-3-3-3-3-----------------|
--------------------------------------------------|
--------------------------------------------------|
--------------------------------------------------|
-0-0-0-0-1-1-1-1-3-3-3-3-3-3-3-3------------------|


If I could build a rocket I would

I would go anywhere tonight

I would go anywhere tonight

Mmmmm

I would go anywhere

----------------------------------------------|
-12-12-12-12-12-12--10-10---5-5-5-5-5-5-5-5---|
----------------------------------------------|
----------------------------------------------|repeat x2
--10-10-10-10-10-10--8--8--3-3-3-3-3-3-3-3----|
----------------------------------------------|


missing a little but for the most part its the right thing. enjoy
Tap to rate this tab
# A B C D E F G H I J K L M N O P Q R S T U V W X Y Z