Song name
# A B C D E F G H I J K L M N O P Q R S T U V W X Y Z

Tori Kelly - Daydream tab

First time making a tab so bare with me :)(this is based off of her live performances)

Tuning:Standard
x= no strumming

Intro and verse 1: she plucks these strings with her fingers
e|---x---x---x---x---x---x---x---x---x---x---x---x---x---x---x---x---x-|
B|---x---x---x---x---x---x---x---x---x---x---x---x---x---x---x---x---x-|
G|---9---9---9---9---9---9---9---9---8---8---8---2---2---2---2---2---2-|
D|---9---9---9---9---9---9---9---9---9---9---9---2---2---2---2---2---2-|
A|---x---x---x---7---7---7---7---7---9---9---9---x---x---x---x---x---x-|
E|---x---x---x---x---x---x---x---x---7---7---7---2---2---2---2---2---2-|

when you get to the chorus you slap the strings right after the end of the verse (right 
before the chorus)

Chorus: she strums this part
e|---x---x---x---x---x---x---x---x---x---x---x---x---x---x---x---x---x-|
B|---x---x---x---x---x---x---x---x---x---x---x---x---x---x---x---x---x-|
G|---2---2---2---x---x---x---x---x---4---4---4---2---2---2---2---2---2-|
D|---2---2---2---2---2---2---2---2---4---4---4---2---2---2---2---2---2-|
A|---0---0---0---2---2---2---2---2---2---2---2---x---x---x---x---x---x-|
E|---x---x---x---0---0---0---0---0---x---x---x---2---2---2---2---2---2-|

verse 2
e|---x---x---x---x---x---x---x---x---x---x---x---x---x---x---x---x---x-|
B|---x---x---x---x---x---x---x---x---x---x---x---x---x---x---x---x---x-|
G|---9---9---9---9---9---9---9---9---8---8---8---2---2---2---2---2---2-|
D|---9---9---9---9---9---9---9---9---9---9---9---2---2---2---2---2---2-|
A|---x---x---x---7---7---7---7---7---9---9---9---2---2---2---2---2---2-|
E|---x---x---x---x---x---x---x---x---7---7---7---2---2---2---2---2---2-|

Chorus again
e|---x---x---x---x---x---x---x---x---x---x---x---x---x---x---x---x---x-|
B|---x---x---x---x---x---x---x---x---x---x---x---x---x---x---x---x---x-|
G|---2---2---2---x---x---x---x---x---4---4---4---2---2---2---2---2---2-|
D|---2---2---2---2---2---2---2---2---4---4---4---2---2---2---2---2---2-|
A|---0---0---0---2---2---2---2---2---2---2---2---x---x---x---x---x---x-|
E|---x---x---x---0---0---0---0---0---x---x---x---2---2---2---2---2---2-|

Bridge: she plucks this part also
e|---x---x---x---x---x---x---x---x---x---x---x---x---x---x---x---x-----|
B|---x---x---x---x---x---x---x---x---x---x---x---x---x---x---x---x-----|
G|---2---2---2---4---4---4---4---4---7---7---7---6---6---6---6---6-----| x4
D|---2---2---2---4---4---4---4---4---7---7---7---6---6---6---6---6-----|
A|---x---x---x---x---x---x---x---x---x---x---x---x---x---x---x---x-----|
E|---2---2---2---4---4---4---4---4---7---7---7---5---5---5---5---5-----|

Bridge: this is how she ended the bridge     | shes strums this part slowly
e|---x---x---x---x---x---x---x---x---x---x---|---x---x----|
B|---x---x---x---x---x---x---x---x---x---x---|---x---x----|
G|---2---2---2---4---4---4---4---4---7---7---|---7---11---|
D|---2---2---2---4---4---4---4---4---7---7---|---7---12---|
A|---x---x---x---x---x---x---x---x---x---x---|---x---x----|
E|---2---2---2---4---4---4---4---4---7---7---|---7---10---|

Chorus/outro:
e|---x---x---x---x---x---x---x---x---x---x---x---x---x---x---x---x---x-|
B|---x---x---x---x---x---x---x---x---x---x---x---x---x---x---x---x---x-|
G|---2---2---2---x---x---x---x---x---4---4---4---2---2---2---2---2---2-|
D|---2---2---2---2---2---2---2---2---4---4---4---2---2---2---2---2---2-|
A|---0---0---0---2---2---2---2---2---2---2---2---x---x---x---x---x---x-|
E|---x---x---x---0---0---0---0---0---x---x---x---2---2---2---2---2---2-|

enjoy and have fun playing this amazing song :)

Lyrics:
Hold on to anything just so you dont crash
Fought off the empty lies that once ruled your past
Right when you think youve won jump three steps back
So now you find yourself stuck in your own trap
They try to dirty up your name
But its all a game
Baby you dont have to know exactly who you are
Because figuring it all out could be the best part

Dont quit your daydream
Dont forget to breathe
Who you want to be is only up to you
Sometimes you may crawl
Let them think that youre small
Cause its so worth the fall when you land where you want to

Tried almost everything still spinning around
But one thing you havent tried is erase every doubt
Keep both feet on the ground while your heads in the clouds
And when you feel like giving up listen to these sounds
And make sure you

Dont quit your daydream
Dont forget to breathe
Who you want to be is only up to you
Sometimes you may crawl
Let them think that youre small
Cause its so worth the fall when you land where you want to

You dont have to know exactly
Who you are just let your heart lead
Its so worth the trials that youre going through
So just enjoy the fall and youll land right where you want to

Dont quit your daydream (just take it slow)
Dont forget to breathe
Who you want to be is only up to you
Sometimes you may crawl (and you're gonna get back up again)
Let them think that youre small
Cause its so worth the fall when you land where you want to

Baby dont you ever quit it

Baby you dont have to know exactly who you are
Because figuring it all out could be the best part
Tap to rate this tab
 
# A B C D E F G H I J K L M N O P Q R S T U V W X Y Z