Song name
# A B C D E F G H I J K L M N O P Q R S T U V W X Y Z

Tori Kelly - Rocket tab

Tori Kelly Rocket tab based off of live performance (StageIt performance) i will have 
some of the parts in section, to make it easier

Tuning: Standard
x: no strumming

Verse: 1st part
e|--------------------------------|
B|-----12--12--12--12--12--12-----|
G|--------------------------------|
D|--------------------------------|
A|---10--10--10--10--10--10-------|
E|--------------------------------|

Verse: part 2
e|----------------|
B|-----7--7-------|
G|----------------|
D|----------------|
A|---5--5---------|
E|----------------|

Verse: part 3
e|-----------------------------------------|
B|-----5--5--5--5--5--5--5--5--5--5--------|
G|-----------------------------------------|
D|-----------------------------------------|
A|---3--3--3--3--3--3--3--3--3--3----------|
E|-----------------------------------------|
Repeat this 4x's twice as the intro and twice  for the verse

Chorus: you play this  2x's
e|--------------------------------|
B|-----5--5--5--5--7--7--8--8-----|
G|--------------------------------|
D|--------------------------------|
A|---4--4--3--3--6--6--7--7-------|
E|--------------------------------|

Chorus: part 2: you pluck the last 2 chords
e|---------------------------x-----x---|
B|-----5--5--5--5--7--7------8----10---|
G|---------------------------x-----x---|
D|---------------------------x-----x---|
A|---4--4--3--3--6--6--------7-----9---|
E|---------------------------x-----x---|

Chorus: part 3
e|------------------------------------2--2--3--3-----|
B|-----5--5--5--5--1--1--1--1--3--3------------------|
G|---------------------------------------------------|
D|---------------------------------------------------|
A|---3--3--3--3--0--0--------------------------------|
E|----------------------1--1--3--3--3--3--3--3-------|

Repeat the verse 2 more times

After the verse, go to the chorus

Bridge: play this 2x's
e|------------------------------------2--2--3--3------|
B|----3--3--3--3--1--1--1--1--3--3--------------------|
G|----------------------------------------------------|
D|----------------------------------------------------|
A|---1--1--1--1--0--0---------------------------------|
E|----------------------1--1--3--3--3--3--3--3--------|

Go back to the verse play it 1x

Ending of the song: part 1
e|------------------------------------------------------------|
B|-----1--1--1--1--3--3--3--3--1--1--1--1--5--5--5--5---------|
G|------------------------------------------------------------|
D|------------------------------------------------------------|
A|---0--0----------------------0--0--------3--3--3--3---------|
E|---------1--1--3--3--3--3---------1--1----------------------|


Ending of the song: part 2
e|-------------------------------------|
B|-----3--3--3--3--1--1--1--1----------|
G|-------------------------------------|
D|-------------------------------------|
A|---1--1--1--1--0--0--1--1------------|
E|-------------------------------------|


If I could build a rocket I would
Put all my dreams inside it I would
Maybe I could travel far into something new
Hang onto a shooting star bursting into view
Just me and my fickle heart lonely never felt so right
I would go anywhere tonight

If I could be a pilot I would
Unlock the sky see what’s inside it I would
Cuz everyone’s out doing things and I’m stuck in my room
But if this bed grew some wings then what could I not do
Just me and my fickle heart lonely never felt so right
I would go anywhere tonight

Oooooh
Oooooh

If I could build a rocket I would
I would go anywhere tonight
I would go anywhere tonight
Mmhhmm
I would go anywhere
Tap to rate this tab
# A B C D E F G H I J K L M N O P Q R S T U V W X Y Z