Song name
# A B C D E F G H I J K L M N O P Q R S T U V W X Y Z

Tori Kelly - Rocket tab

ROOOOCKET

-VERSE 1&2-
e|-------------------------------------------------------------|
B|-------12--12--12--12--12--12--7--7--5--5--5--5--5--5--5--5--|
G|-------------------------------------------------------------|
D|-------------------------------------------------------------|(repeat 2x)
A|-----10--10--10--10--10--10--5--5--3--3--3--3--3--3--3--3--3-|
E|-------------------------------------------------------------|

e|-------------------------------|
B|-------5--5--5--5--7--7--8--8--|
G|-------------------------------|
D|-------------------------------|(repeat 2x)
A|-----4--4--3--3--5--5--7--7----|
E|-------------------------------|

e|----------------------------------------------------------------2--3---|
B|-------5--5--5--5--7--7--8--10--5--5--5--5--1--1--1--1--0--0--0--0--0--|
G|-----------------------------------------------------------------------|
D|-----------------------------------------------------------------------|
A|-----4--4--3--3--5--5--7--9--3--3--3--3--0--0--------------------------|
E|------------------------------------------------1--1--3--3--3--3--3----|

-BRIDGE- (repeat 2x)
e|---------------------------------------2--3---|
B|-------3--3--3--3--1--1--1--1--0--0--0--0--0--|
G|----------------------------------------------|
D|----------------------------------------------|
A|-----1--1--1--1--0--0-------------------------|
E|-----------------------1--1--3--3--3--3--3----|

last part ehh "If I could build a rocket I would, I would go anywhere tonight" XD
e|-------------------------------------------------------------|
B|-------12--12--12--12--12--12--7--7--5--5--5--5--5--5--5--5--|
G|-------------------------------------------------------------|
D|-------------------------------------------------------------|
A|-----10--10--10--10--10--10--5--5--3--3--3--3--3--3--3--3--3-|
E|-------------------------------------------------------------|

e|-------------------------------------------------------------------|
B|-------1--1--1--1--0--0--0--0--1--1--1--1--5--5--5--5--3--3--3--3--|
G|-------------------------------------------------------------------|
D|-------------------------------------------------------------------|
A|-----0--0--------------------0--0--------3--3--3--3--1--1--1--1----|
E|-----------1--1--3--3--3--3--------1--1----------------------------|

e|-------------------|
B|-------1--1--1--1--|
G|-------------------|
D|-------------------|
A|-----0--0----------|
E|-----------1--1----|

HAVE FUN ! (:

LYRICS

-VERSE 1-
If I could build a rocket I would
Put all my dreams inside it I would
Maybe I could travel far into something new
Hang onto a shooting star bursting into view
Just me and my fickle heart lonely never felt so right
I would go anywhere tonight

-VERSE 2-
If I could be a pilot I would
Unlock the sky see what’s inside it I would
Cuz everyone’s out doing things and I’m stuck in my room
But if this bed grew some wings then what could I not do
Just me and my fickle heart lonely never felt so right
I would go anywhere tonight

-BRIDGE-
Oooooh
Oooooh


If I could build a rocket I would
I would go anywhere tonight
I would go anywhere tonight
Mmhhmm
I would go anywhere
Tap to rate this tab
 
# A B C D E F G H I J K L M N O P Q R S T U V W X Y Z