Song name
# A B C D E F G H I J K L M N O P Q R S T U V W X Y Z

Tori Kelly - Suit And Tie chords

Highlighted       Show chord diagrams
Standard Tuning
Capo 1
Chords relative to capo!

e|-------X-x---X----x--------------------------|
B|-------3-x---3----x--------------------------|
G|-------4-x---4----x--------------------------|
D|-------4-x---4----x--------------------------|  
A|-------X-x---X----x--------------------------|
E|---3---X-x---3----x--------------------------|

e|--------X--x---X----x------------------------|
B|--------10-x---10---x------------------------|
G|--------11-x---11---x------------------------| strumming part is
D|--------11-x---11---x------------------------| DU UUUD
A|--------X--x---X----x------------------------|
E|---10---X--x---10---x------------------------|


************************************

| /   slide up
| \   slide down
| H   hammer-on
| p   pull-off
| ~   vibrato
| +   harmonic
| x   Mute note
| B   Bend
| pb  Pre-bend
| br  Bend release
| pbr Pre-bend release
| brb Bend release bend

************************************
Tap to rate this tab
# A B C D E F G H I J K L M N O P Q R S T U V W X Y Z