Song name
# A B C D E F G H I J K L M N O P Q R S T U V W X Y Z

Tori Kelly - Design tab

-------------------------------------------------------------------------------
                             Design - Tori Kelly
-------------------------------------------------------------------------------
Tabbed by: Itsaliakanwal
E-mail: alia_kanwal@hotmail.com

Tuning: Standard

Verse 1
e|---x---|---x------|
B|---2---|---3------|
G|---2---|---4------|
D|---2---|---4------|
A|---x---|---x------|
E|---x---|---3------|

No more disguise
Feeling exposed
Under this mask
Nobody knows
The tiniest flaws
Become all I see
I wanna fall, yeah, I wanna fall, yeah
I wanna fall in love with me
But mirror, mirror on the wall
You built me up
You watched me fall
But I don't need to cry cause now I

e|---x----|
B|---10---|
G|---11---|
D|---11---|
A|---x----|
E|---10---|

Realize

Chorus
e|---x---|---x---|---x---|
B|---x---|---x---|---x---|
G|---2---|---9---|---7---|
D|---2---|---9---|---7---|
A|---x---|---x---|---x---|
E|---2---|---9---|---7---|

I am more than this skin
More than what I'm wearing
So these imperfections
Yeah, I'm embracing
I am one of a kind
Starting from the inside
As I learn to love my whole design

Verse 2
e|---x---|---x------|
B|---2---|---3------|
G|---2---|---4------|
D|---2---|---4------|
A|---x---|---x------|
E|---x---|---3------|

Why is it hard
To be yourself
Always compared
To everyone else
But I gotta believe that I'm a work of art
And I gonna sing it out so loud
And tattoo it on my heart

Chorus
e|---x---|---x---|---x---|
B|---x---|---x---|---x---|
G|---2---|---9---|---7---|
D|---2---|---9---|---7---|
A|---x---|---x---|---x---|
E|---2---|---9---|---7---|

I am more than this skin
More than what I'm wearing
So these imperfections
Yeah, I'm embracing
I am one of a kind
Starting from the inside
As I learn to love my whole design

Bridge
e|---x---|---x---|---x---|---x---|
B|---2---|---1---|---8---|---x---|
G|---2---|---2---|---9---|---7---|
D|---2---|---2---|---9---|---7---|
A|---x---|---x---|---x---|---x---|
E|---x---|---1---|---8---|---7---|

Every detail
Down to the core
I want to love myself more
I'm learning to love myself cause

Chorus
e|---x---|---x---|---x---|
B|---x---|---x---|---x---|
G|---2---|---9---|---7---|
D|---2---|---9---|---7---|
A|---x---|---x---|---x---|
E|---2---|---9---|---7---|

I am more than this skin
More than what I'm wearing
So these imperfections
Yeah
I'm embracing all of them
Da-da da-da
Da-da da-da
I learn to love my whole design

I am more than this skin
More than what I'm wearing
So these imperfections
Yeah, I'm embracing
I am one of a kind
Starting from the inside
As I learn to love my whole design

I'm beautiful
Even on the days I don't feel beautiful
And baby you're beautiful
Even on the days you don't feel beautiful

I'm beautiful
Even on the days I don't feel beautiful
And baby you're beautiful
Even on the days you don't feel beautiful

You're beautiful
You better believe that, yeah you better believe it baby

************************************
Tap to rate this tab
 
# A B C D E F G H I J K L M N O P Q R S T U V W X Y Z