Song name
# A B C D E F G H I J K L M N O P Q R S T U V W X Y Z

Torment The Vein - In Her Torture tab

-----------------------------------------------------------------------------
In Her Torture by Torment the Vein ((http://www.myspace.com/tormentthevein))
-----------------------------------------------------------------------------

Tabbed by: Dalton Sutton
Site: www.daltonsutton.com

Tuning: Drop C

D|---------------------------------------------------------------------------|
A|---------------------------------------------------------------------------|
F|---------------------------------------------------------------------------|
C|-----------------------3---3---3---3---------------------------------------|
G|-002--002--002--220--------------------002--002--002--220----3---3---3---3-|
C|-002--002--002--220--22--22--22--22----002--002--002--220--22--22--22--22--|

D|---------------------------------------------------------------------------|
A|---------------------------------------------------------------------------|
F|---------------------------------------------------------------------------|
C|-----------------------3---3---3---3-------------------------3-------3-----|
G|-002--002--002--220--------------------002--002--002--220--------3-------3-|
C|-002--002--002--220--22--22--22--22----002--002--002--220--22--22--22--22--|
   xxx  xxx  xxx  xx   xx  xx  xx  xx    xx   xx   xx   xx   xx  xx  xx  xx

D|---------------------------------------------------------------------------|
A|---------------------------------------------------------------------------|
F|---------------------------------------------------------------------------|
C|-99-----555--777--99-----555--777--99-----555--777--99-----555--777--------|
G|-77-000-33333333--77-000-33333333--77-000-33333333--77-000-33333333--------|
C|-77-000-33333333--77-000-33333333--77-000-33333333--77-000-33333333--------|
      xx               xx               xx               xx
       /* Rhythm Guitar */

D|---------------------------------------------------------------------------|
A|---------------------------------------------------------------------------|
F|---------------------------------------------------------------------------|
C|--52------52---------52------52--------------------------------------------|
G|-234320--234320000--234320--234333222--------------------------------------|
C|-2--320--2--320000--2--320--2--333222--------------------------------------|
                xxxx             xxxxxx
       /* Break Down - Repeats again (x2) */

************************************

| /   slide up
| \   slide down
| h   hammer-on
| p   pull-off
| ~   vibrato
| +   harmonic
| x   Mute note
| b   Bend
| pb  Pre-bend
| br  Bend release
| pbr Pre-bend release
| brb Bend release bend

************************************
Tap to rate this tab
 
# A B C D E F G H I J K L M N O P Q R S T U V W X Y Z