Song name
# A B C D E F G H I J K L M N O P Q R S T U V W X Y Z

Tornadoes - Telstar tab

BAND: The Tornadoes (produced by Joe Meek)
SONG: Telstar
ALBUM: Vampires, Cowboys, Spacemen & Spooks (and various others)

Tabbed March 2010
gm_beech@hotmail.com


G|----------------------------1----2---|
D|-----4------4----4----5--------------|


e|--------------------------------------------|
B|----------------------------3--2--0-----0---|
G|-----2-------------------------------2------|
D|--(2)--------2---4--------2-----------------|
A|--------------------------------------------|
E|--------------------------------------------|

E|-------------------------0---|
B|----3--2--0-----0------------|
G|------------2----------------|
D|--2-----------------2--------|
A|-----------------------------|
E|-----------------------------|

e|--2--------0-------0-----------------------|
B|-----------------------3-----2------2--0---|
G|----------------2--------------------------|
D|--------------------------------3-4--------|
A|-------------------------------------------|
E|-------------------------------------------|

e|------------------------------------------------|
B|--2--------2-----3--2--0----0-------------------|
G|--------------------------2------1--2--1--------|
D|-------------------------------4---------4-2---|
A|------------------------------------------------|
E|------------------------------------------------|

e|----------------------------------------------|
B|------------------------------3--2--0-----0---|
G|--2------------------------------------2------|
D|------------2---4----------2------------------|
A|----------------------------------------------|
E|----------------------------------------------|

E|-------------------------0---|
B|----3--2--0-----0------------|
G|------------2----------------|
D|--2-----------------2--------|
A|-----------------------------|
E|-----------------------------|


e|--2--------0-------0-----------------------|
B|-----------------------3-----2------2--0---|
G|----------------2--------------------------|
D|--------------------------------3-4--------|
A|-------------------------------------------|
E|-------------------------------------------|

e|-------------------------------------------|
B|--2--------2-----3--2--0----0--0-2-0---0---|
G|--------------------------2----------2-----|
D|------------------------------------------|
A|-------------------------------------------|
E|-------------------------------------------|

e|-12-12-12-12-14-12-------------9----9-----|
B|-----------------------10--12----12-------|
G|--------------------------------------9---|
D|------------------------------------------|
A|------------------------------------------|
E|------------------------------------------|

e|----7-9-9-7-9-10-9-9-7----7-9-7---|
B|-10---------------------10---------|
G|-----------------------------------|
D|-----------------------------------|
A|-----------------------------------|
E|-----------------------------------|

e|-9-10-12-12-12-12-14-12------------9----9-----|
B|---------------------------10--12----12-------|
G|------------------------------------------9---|
D|----------------------------------------------|
A|----------------------------------------------|
E|----------------------------------------------|

e|----7-9-9-7-9-10-9-9-7----7-9-7--------10---|
B|-10---------------------10----------9--------|
G|----------------------------------9---9------|
D|---------------------------------------------|
A|---------------------------------------------|
E|---------------------------------------------|

e|--------------------------------------------|
B|----------------------------3--2--0-----0---|
G|-----2-------------------------------2------|
D|--(2)--------2---4--------2-----------------|
A|--------------------------------------------|
E|--------------------------------------------|


E|-------------------------0---|
B|----3--2--0-----0------------|
G|------------2----------------|
D|--2-----------------2--------|
A|-----------------------------|
E|-----------------------------|

e|--2--------0-------0-----------------------|
B|-----------------------3-----2------2--0---|
G|----------------2--------------------------|
D|--------------------------------3-4--------|
A|-------------------------------------------|
E|-------------------------------------------|

e|-------------------------------------------|
B|--2--------2-----3--2--0----0--0-2-0---0---|
G|--------------------------2----------2-----|
D|------------------------------------------|
A|-------------------------------------------|
E|-------------------------------------------|

e|-12-12-12-12-14-12-------------9----9-----|
B|-----------------------10--12----12-------|
G|--------------------------------------9---|
D|------------------------------------------|
A|------------------------------------------|
E|------------------------------------------|

e|----7-9-9-7-9-10-9-9-7----7-9-7--------10---|
B|-10---------------------10----------9--------|
G|----------------------------------9---9------|
D|---------------------------------------------|
A|---------------------------------------------|
E|---------------------------------------------|

e|---------------------------------|
B|-----------------8--7------------|
G|--7-------------------9---7--9---|
D|------7--9---7-------------------|
A|---------------------------------|
E|---------------------------------|

e|-----------------------------|
B|-----8--7---------------10---|
G|-----------9---7--9----------|
D|--7------------------7-------|
A|-----------------------------|
E|-----------------------------|


e|-------------------------------------------------|
B|--12-------10------------------------------------|
G|-------------------14--12----11-----------11-9---|
D|---------------12--------------------------------|
A|----------------------------------13--14---------|
E|-------------------------------------------------|

e|-------------------------------------------------------|
B|-------------------------------------------------------|
G|--11-------11----12-11--9-------------11--9------------|
D|--------------------------12--14---14-------12-14-12---|
A|-------------------------------------------------------|
E|-------------------------------------------------------|

e|-----------------|
B|-----------15~---|
G|------14~--------|
D|-12~-------------|
A|-----------------|
E|-----------------|
Tap to rate this tab
 
# A B C D E F G H I J K L M N O P Q R S T U V W X Y Z