Song name
# A B C D E F G H I J K L M N O P Q R S T U V W X Y Z

Toro Y Moi - New Loved Ones tab

Worked it out by ear. Not perfect

Intro/ Chorus
e|---------------------------------------------------------|
b|---------------------------------------------------------|
g|-4-----6----9-------11--7--7--7----7-----7-----7-----7---|
d|--(Listen to track for rhythm)---9-----9-----8-----7-----|
a|---------------------------------------5-----5-----5-----|
E|-5--5--5--5/10--10--10--7--6--5------5-----5-----5-------|

  |intro/chorus cont.| Verse chords
e|5----5--------------|-3--5-------|
b|5----7--------------|-3--7-------|
g|7----7----9/11\9----|-4--7-------|
d|7----7--9-----------|-5--7-------|
a|5----5----7/9\7-----|-5--5-------|
E|5-------7-----------|-3----------|

Arpeggio where needed on chords
Tap to rate this tab
# A B C D E F G H I J K L M N O P Q R S T U V W X Y Z