Song name
# A B C D E F G H I J K L M N O P Q R S T U V W X Y Z

Torres - Jealousy And I chords

Highlighted       Show chord diagrams
----------------------------------------------------------------------------
                             Jealousy and I - Torres
-----------------------------------------------------------------------------
Tabbed by: Daysleeper_05
Tuning: Standard

Capo 1
With Reverb and Delay

Ms. Scott tends to play without a pick. With this in mind, here is the picking
pattern for the intro, which continues throughout the rest of the song: 

e|-----------------1-----------------------1--------------------|
B|-----------3-----------3-----------3-----------2--------------|
G|-----2-----------------------2--------------------------------|
D|--0-----0-----0-----0-----0-----0-----0-----0-----0-----------|
A|--------------------------------------------------------------|
E|--------------------------------------------------------------|

e|-----------------0-----------------------3--------------------|
B|-----------1-----------1-----------0-----------0--------------|
G|-----0-----------------------0--------------------------------|
D|--------------------------------------------------------------|
A|--3-----3-----3-----3-----------------------------------------|
E|--------------------------3-----3-----3-----3-----------------|

e|-----------------0-----------------------0--------------------|
B|-----------1-----------1-----------1-----------1--------------|
G|-----2-----------------------2--------------------------------|
D|--------------------------------------------------------------|
A|--0-----0-----0-----0-----0-----0-----0-----0-----0-----------|
E|--------------------------------------------------------------|

For the "'Cause Jealousy and I, we're two of a kind" part, she plays
G, Am, and F as full bar chords, which I have not reflected in the notation. 
The same goes for the "I'll never let her go" part.

Intro:
| Dm   Dm | C   G | Am   Am | x2

Dm                    C
What am I supposed to say babe?
G                                Am
I'll be up all night to tell the truth
Dm                      C
Would you really have a stranger in your bed
            G                                Am
Rather than let someone like me take care of you?
Dm                   C
It's no one's problem but my own
  G                           Am
I think I've always cared too  much
Dm              C
I'm suffocating you, I know
              G          
It's just the only way I know to 
Dm   C   G  
 Love        know to
Dm   C   G
 Love

[pause]

Dm            C
Jealousy it's me sometimes
    G                Am
But I don't mind, no I don't mind
Dm            C
Jealousy it's me sometimes
    G                Am
But I don't mind, no I don't mind
       G     Am G    F
'Cause jealousy and I
G         Am G F
We're two of a kind and she's all 
Dm   C   G 
 Mine          She's all
Dm   C   G 
 Mine

Dm             C
You don't owe me anything
           G                      Am
But you've got to spell it out for me
Dm                                 C
'Cause if you're saying things that you don't mean
               G                  
Then you don't really want me at your
Dm   C   G 
 Feet           At your
Dm   C   G 
 Feet

[pause]

Dm            C
Jealousy it's me sometimes
    G                Am
But I don't mind, no I don't mind
Dm            C
Jealousy it's me sometimes
    G                Am
But I don't mind, no I don't mind
       G     Am G    F
'Cause jealousy and I
G         Am G F
We're two of a kind and she's all 
Dm   C   G 
 Mine          She's all
Dm   C   G 
 Mine          She's all
Dm   C   G
 Mine          She's all
Dm   C   G
 Mine

[pause]

F        G       Am
I'll never let her go
F        G       Am
I'll never let her go
F        G       Am
I'll never let her go
F        G       Am
I'll never let her go
F    (G)
     'cause

[pause]

Dm            C
Jealousy it's me sometimes
    G                Am
But I don't mind, no I don't mind
Dm            C
Jealousy it's me sometimes
    G                Am
But I don't mind, no I don't mind
       G     Am G    F
'Cause jealousy and I
G         Am G F
We're two of a kind and she's all 
Dm   C   G 
 Mine          She's all
Dm   C   G 
 Mine          She's all
Dm   C   G
 Mine          She's all
Dm   C   G
 Mine
Tap to rate this tab
# A B C D E F G H I J K L M N O P Q R S T U V W X Y Z