Song name
# A B C D E F G H I J K L M N O P Q R S T U V W X Y Z

Tortoise - Charteroak Foundation tab

The guitar part in this song is all arpeggiated.  I've split the chord progressions into 
 Just play the arpeggios in triplet time (six beats to a bar in 4/4 time).

PART A:
e-------------------------------------------------|
B-------------------------------------------------|
G-------0-----------0-----------0-----------0-----|
D-----4---4-------4---4-------4---4-------4---4---|
A---2-------2---2-------2---2-------2---2-------2-|
E-0-----------0-----------3-----------3-----------|


PART B:
e-------------------------------------------------|
B-------------------------------------------------|
G-------3-----------3-----------3-----------3-----|
D-----4---4-------4---4-------4---4-------4---4---|
A---2-------2---2-------2---2-------2---2-------2-|
E-0-----------0-----------4-----------4-----------|


PART C:
e-------------------------------------------------|
B-------0-----------0-----------0-----------0-----|
G-----6---6-------6---6-------6---6-------6---6---|
D---6-------6---6-------6---6-------6---6-------6-|
A-------------------------5-----------5-----------|
E-5-----------5-----------------------------------|

e-------------------------------------------------|
B-------0-----------0-----------0-----------0-----|
G-----6---6-------6---6-------6---6-------6---6---|
D---6-------6---6-------6---6-------6---6-------6-|
A-4-----------4-----------------------------------|
E-------------------------7-----------7-----------|

PART D:
e-------------------------------------------------|
B-------0-----------0-----------0-----------0-----|
G-----6---6-------6---6-------6---6-------6---6---|
D---6-------6---6-------6---6-------6---6-------6-|
A-------------------------------------------------|
E-5-----------5-----------4-----------4-----------|

e-------0-----------0-----------0-----------0-----|
B-----2---2-------2---2-------2---2-------2---2---|
G---1-------1---1-------1---1-------1---1-------1-|
D-------------------------------------------------|
A-------------------------------------------------|
E-2-----------2-----------2-----------2-----------|

PART E:
e-------------------------------------2-0---------|
B-------3-----------3-----------3---------3-----3-|
G-----0---0-------0---0-------0---0---------0-----|
D---4-------4---4-------4---4-------4---------4---|
A-0-----------0-----------0-----------------------|
E-------------------------------------------------|


Here's how the song is broken down:

PART A x4
PART B x2
PART A x2
PART B x2
PART A x2
PART B x2

PART C x2
PART D x1

PART E x8

PART D x2

PART A x2
PART B x2
PART A x2
PART B x2

I figured this would be easier than tabbing out the whole thing.  Happy playing!
Tap to rate this tab
# A B C D E F G H I J K L M N O P Q R S T U V W X Y Z