Song name
# A B C D E F G H I J K L M N O P Q R S T U V W X Y Z

Tortoise - Glass Museum tab

Tortoise- "Glass Museum"


E:||-----------(2)-----------------| 
B:||------0---0-2------------------|
G:||----2---2---2----2-------------|
D:||--4---------4------4-----4-----|
A:||2-----------5--------5-----5-0-|
E:||-------------------------------|  Repeat this a few times.

Then it goes like this a couple of times:

E:||----------------------------|
B:||----2-----------------------|
G:||------2---------------------|
D:||--4-----4-------------4-----|
A:||2---------2-4-5-4-------5-0-|
E:||----------------------------|

Listen to the disc to learn when to play each part.



Tabbed by: Greg Speight
Tap to rate this tab
# A B C D E F G H I J K L M N O P Q R S T U V W X Y Z