Song name
# A B C D E F G H I J K L M N O P Q R S T U V W X Y Z

Tortoise - Djed tab

Song:	DJED
Artist:	TORTOISE
Album:	MILLIONS NOW LIVING WILL NEVER DIE
Tab:	ANDY

Tuning:	D A D G B E

|-------------|-------------|
|-------------|-------------|
|-------------|-------------|
|---------1---|-0-----------|
|-----2-------|---4----0----| x2
|-2-----------|-------------|

|-------------|-------------|
|-------------|-------------|
|-------------|-------------|
|---------1---|-0-----------|
|-----2-------|---4-------0-| x2
|-2-----------|-------------|

|-------------|-------------------------------------|
|-------------|-------------------------------------|
|-------------|-------------------------------------|
|---------1---|-0-----2-----------------------------|
|-----2-------|---4-2---4-------------------3-2---0-|
|-2-----------|-----------2-7-6---5-4---0-----------|

|-----------------|
|-----------------|
|-----------------|
|-----------------|
|-----------------|
|-2-2-2-2-2-2-2-2-|
Tap to rate this tab
# A B C D E F G H I J K L M N O P Q R S T U V W X Y Z