Song name
# A B C D E F G H I J K L M N O P Q R S T U V W X Y Z

Tortoise - Seneca tab

Song: SENECA
Band: TORTOISE
Album: STANDARDS
Tab: DEAN

MAIN RIFF
Guitar I
e|------------------------------------------------|
B|------------------------------------------------|
G|----------5-------------------------------------|
D|------7-----7---7------------repeat-------------|
A|----5---8-----5---8--5\3------------------------|
E|------------------------------------------------|

Guitar II
e|------------------------------------------------|
B|------------------------------------------------|
G|------------------------------------------------|
D|-----------------------------repeat-------------|
A|----5-5-----5-5-----33333-----------------------|
E|--------5-5-----5-5-----------------------------|


KEY CHANGE
Guitar I
e|------------------------------------------------|
B|------------------------------------------------|
G|------------8-----------------------------------|
D|------10------10---10----------repeat-----------|
A|----8----11------8----11--8\6-------------------|
E|------------------------------------------------|

couldn't figure out the harmony to this part. anybody got any ideas?
Tap to rate this tab
# A B C D E F G H I J K L M N O P Q R S T U V W X Y Z