Song name
# A B C D E F G H I J K L M N O P Q R S T U V W X Y Z

Tortoise - Its All Around You tab

Song: IT'S ALL AROUND YOU (intro)
Band: TORTOISE
Album: IT'S ALL AROUND YOU
Tab: DEAN

/ = Slide Up
\ = Slide Down

e|-------------------------------------------------------------|
B|-------------------------------------------------------------|
G|--------------11-8------------11--------13~------------------|
D|-----------11------9-11~---11----13--------------------------|
A|----7/11-9--------------------------/14----------------------|
E|-----------------------(9)-----------------(9/12\11\9)-------|
                          ^ 2nd Guitar (i think)
e|-----------------------------------------------------------------------|
B|-----------------------------------------------------------------------|
G|----13-11------------------11------------------------------------------|
D|----------13-------11---11----13/14-9-------9--------------------------|
A|-------------14-11--------------------11-------------------------------|
E|----------------------------------------------9h11-12-11-9-9/11\9------|

May not be exactly right, especially the end. 
Tap to rate this tab
 
# A B C D E F G H I J K L M N O P Q R S T U V W X Y Z