Guitaretab - guitar tabs
Song name
# A B C D E F G H I J K L M N O P Q R S T U V W X Y Z

Tose Proeski - Soba Za Tugu tab

Hallo, my name is Vladimir, Im from Serbia.
Sad sad song...





                Tose Proeski - Soba za tugu
            (album: Ako me pogledaš u oči, 2002)




Intro: 2X

    Am          Dm          G           Em          Am         F          Dm    Em
e|---------------------------------------------------------0----------0---1-0-----------|
B|--------0-1---------0-1---0-0-0-1-3---0-0-0-1-3---1-1-1-3----1-1-1-3-------3-1-0----0-|
G|---2-2-2-------2-2-2-------------------------------------------------------------2-0--|
D|--------------------------------------------------------------------------------------|
A|--------------------------------------------------------------------------------------|
E|--------------------------------------------------------------------------------------|


Am
Ovo je odluka moja

jer bila volja je tvoja
Em
da s' drugim odes od mene

i sve mi nizbrdo krene
Dm
da mrakom zamenim dugu

lezeci provodim dane
Dm      Em
u ovoj sobi za tugu
F       G
sa ove zapadne strane



Am        Dm          G
Izmedju vrata i prozora
           Em
moj krevet za tobom dise
Am       Dm          G
Ne mogu dalje od umora
          Em
ni metar manje, ni vise



Dm     Em
I bilo sta da se desi
F         G
ja sam na istoj adresi


Izmedju vrata i prozora
moj krevet za tobom dise
ne mogu dalje od umora
ni metar manje, ni vise


Am
U taj sam krevet
Dm
odavno pao
G
tu gde sam pao
Em
zivot je stao
Am
uzalud skidam
F
pogreb sa sebe
Dm           Em
sve me boli posle tebe


U taj sam krevet
odavno pao
tu gde sam pao
zivot je stao
uzalud skidam
pogreb sa sebe
sve me boli posle tebe


Em
e|---3---3---3---3---3----|
B|---5---5---5---5---5----|
G|-----4---4---4---4---4--|

[ Tab from: http://www.guitaretab.com/t/tose-proeski/111510.html ]
Ovo je odluka moja
i mnogi ce da se cude
a kada odluim nesto
to tako mora da bude
da mrakom zamenim dugu
lezeci provodim dane
u ovoj sobi za tugu
sa ove zapadne strane


Izmedju vrata i prozora
moj krevet za tobom dise
ne mogu dalje od umora
ni metar manje, ni vise


i bilo sta da se desi
ja sam na istoj adresi


Izmedju vrata i prozora
moj krevet za tobom dise
ne mogu dalje od umora
ni metar manje, ni vise


U taj sam krevet
odavno pao
tu gde sam pao
zivot je stao
uzalud skidam
pogreb sa sebe
sve me boli posle tebe


U taj sam krevet
odavno pao
tu gde sam pao
zivot je stao
uzalud skidam
pogreb sa sebe
sve me boli posle tebe


Interlude:

     Em                          C
e|----------------------2-3-2-------------------------------|
B|---------5---------5-------5-3----------------------------|
G|---4-4-4---4-4-4-4-------------5-5-5-5-5-5-5-5-5-5-5-5-5--|
D|---2-2-2---2-2-2-2-------------5-5-5---5-5-5-5---5-5-5----|  2X
A|---2-2-2---2-2-2-2-------------3-3-3---3-3-3-3---3-3-3----|
E|----------------------------------------------------------|


e|---7-6-5-4-3-2-1-0----|
B|-------------------3--|


Dm      Em
U ovoj sobi za tugu
F       G
sa ove zapadne strane


Izmedju vrata i prozora
moj krevet za tobom dise
ne mogu dalje od umora
ni metar manje, ni vise


i bilo sta da se desi
ja sam na istoj adresi


U taj sam krevet
odavno pao
tu gde sam pao
zivot je stao
uzalud skidam
pogreb sa sebe
sve me boli posle tebe


U taj sam krevet
odavno pao
tu gde sam pao
zivot je stao
uzalud skidam
pogreb sa sebe
sve me boli posle tebe


Solo with interlude...



Used chords:

        EADGBe
Em------022000 (xx2453)
Am------x02210
Dm------xx0231
F-------133211
G-------320033
C-------x32010 (x35553)


Any comments post me at tordajav@yahoo.com
Related for Soba Za Tugu tab
Advertisement will be closed in 10 seconds