Song name
# A B C D E F G H I J K L M N O P Q R S T U V W X Y Z

Tose Proeski - Vezi Me Za Sebe tab

                            Tose Proeski - Vezi me za sebe (intro)




 e|--6--6--6--6--6--6--10--6--|--8--8--8--8--8--8--10--8--|--6--6--6--6--6--6--10--6--|
 B|---------------------------|---------------------------|---------------------------|
 G|---------------------------|---------------------------|---------------------------|
 D|---------------------------|---------------------------|---------------------------|
 A|---------------------------|---------------------------|---------------------------|
 E|---------------------------|---------------------------|---------------------------|

|--8--8--8--8--8--6--5--6|
|------------------------|
|------------------------|
|------------------------|
|------------------------|
|------------------------|


 e|--6--6--6--6--6--6--10--6--|--8--8--8--8--8--8--10--8--|--6--6--6--6--6--6--10--6--|
 B|---------------------------|---------------------------|---------------------------|
 G|---------------------------|---------------------------|---------------------------|
 D|---------------------------|---------------------------|---------------------------|
 A|---------------------------|---------------------------|---------------------------|
 E|---------------------------|---------------------------|---------------------------|

|--8--8--10--8--6--5--6|
|----------------------|
|----------------------|
|----------------------|
|----------------------|
|----------------------|


Tabbed by: imperatormk
Tap to rate this tab
 
# A B C D E F G H I J K L M N O P Q R S T U V W X Y Z